» » »

Cancion Viejita Tabs (ver.1)

Artists:  A B C D E F G H I J K L M N O P Q R S T U V W X Y Z # 

Cancion Viejita Tabs (ver.1)

Unsigned
Rating:
0/5 (0 votes)

Hard to play? Try these video lessons and learn fast.
                e------------------------------------------------------------------------------------
b------------------------------------------------------------------------------------
g------------------------------------------------------------------------------------
d-------------------0----------------------------------------------------------------
a-----------2---4-------4---2--------------------------------------------------------
e---0---4-----------------------4---0------------------------------------------------


e------------------------------------------------------------------------------------
b------------------------------------------------------------------------------------
g-------------------0----------------------------------------------------------------
d-----------2---4-------4---2-------------------------------------------------------
a---0---4-----------------------4---0------------------------------------------------
e------------------------------------------------------------------------------------
            
Hard to play? Try these video lessons and learn fast. | Correct




comments powered by Disqus
↑ Back to top | Tablatures and chords are parodies/interpretations of the original songs. You may use it for private study, scholarship, research or language learning purposes only