» » »

Camel Wrist- Camel Song Tabs (ver.1)

Artists:  A B C D E F G H I J K L M N O P Q R S T U V W X Y Z # 

Camel Wrist- Camel Song Tabs (ver.1)

Unsigned
Rating:
0/5 (0 votes)

Hard to play? Try these video lessons and learn fast.
                E----------------------------------------------------------
B----------------------------------------------------------
G----------------------------------------------------------
D-7-7-8-6-8--7-7-8-6-8--7-7-8-6-8--7-7-8-6-8---------------
A-7-7-8-6-8--7-7-8-6-8--7-7-8-6-8--7-7-8-6-8---------------
E-5-5-6-6-6--5-5-6-6-6--5-5-6-6-6--5-5-6-6-6--------------

And it goes like this:

E-----------------------------------------------------------------------
B-----------------------------------------------------------------------
G-----------------------------------------------------------------------
D-2-2-2-2-3-5-6-2-2-2-2-3-5-6-2-2-2-2-3-5-6-2-2-2-2-3-5-6---------------
A-2-2-2-2-3-5-6-2-2-2-2-3-5-6-2-2-2-2-3-5-6-2-2-2-2-3-5-6---------------
E-0-0-0-0-1-3-4-0-0-0-0-1-3-4-0-0-0-0-1-3-4-0-0-0-0-1-3-4---------------

This is it! It is really simple to play, but  me and the band thinks that it sounds really good! Enjoy!
            
Hard to play? Try these video lessons and learn fast. | Correct




comments powered by Disqus
↑ Back to top | Tablatures and chords are parodies/interpretations of the original songs. You may use it for private study, scholarship, research or language learning purposes only