» » »

Byk9-No Time For Time Tabs (ver.1)

Artists:  A B C D E F G H I J K L M N O P Q R S T U V W X Y Z # 

Byk9-No Time For Time Tabs (ver.1)

Unsigned
Rating:
0/5 (0 votes)

Hard to play? Try these video lessons and learn fast.
                GUITAR

VERSE

E-------------------------------------------------------
B-------------------------------------------------------
G-------------------------------------------------------
D-------------------------------------------------------      X3
A-------------------------------------------------------
E---2---3---4---3-------------------------------------

E-------------------------------------------------------
B-------------------------------------------------------
G-------------------------------------------------------
D-------------------------------------------------------      X1
A-------------------------------------------------------
E---2---3---4----------------------------------------

1 2 3 4

CHORUS

E-------3-3-3-3-------4-4-4-4--------5-5-5-5-----------7-7-------6-6-------
B-------3-3-3-3-------4-4-4-4--------5-5-5-5-----------7-7-------6-6-------
G-------3-3-3-3-------4-4-4-4--------5-5-5-5-----------7-7-------6-6-------X4
D-------3-3-3-3-------4-4-4-4--------5-5-5-5-----------7-7-------6-6-------
A-------3-3-3-3-------4-4-4-4--------5-5-5-5-----------7-7-------6-6-------
E-------3-3-3-3-------4-4-4-4--------5-5-5-5-----------7-7-------6-6-------

VERSE

CHORUS

BASS BREAK

SOLO

E---9-12-14-14-12----9-12-14-14-12-11-10-9-8
B-------------------------------------------------------
G-------------------------------------------------------
D-------------------------------------------------------
A-------------------------------------------------------
E-------------------------------------------------------

CHORUS 

BASS END
            
Hard to play? Try these video lessons and learn fast. | Correct




comments powered by Disqus
↑ Back to top | Tablatures and chords are parodies/interpretations of the original songs. You may use it for private study, scholarship, research or language learning purposes only