» » »

Byk9- No Time Bass tabs (ver.1)

Artists:  A B C D E F G H I J K L M N O P Q R S T U V W X Y Z # 

Byk9- No Time Bass tabs (ver.1)

Unsigned
Rating:
0/5 (0 votes)

Hard to play? Try these video lessons and learn fast.
                BASS	


VERSE

G------1-1-0-0---------------------1-1-0-0
D----------------1-1-0-0-1-1-0-0----------    X3
A---------------------------------------------
E---------------------------------------------


1 2 3 4

CHORUS

G------------------------------------------------
D------------------------------------------------     X4
A---------------------------------------4-4-3-3
E--------1-1-1-1-2-2-2-2-3-3-3-3-----------


VERSE

CHORUS

BASS BREAK

G----------------------------------------------------
D---------------------5-5-----5-5-6-6 SLIDE UP   
A-----------------5-5----5-5-----------------------
E-1-2-3-4-5-5-------------------------------------

GUITAR SOLO

CHORUS

BASS END

G-------------------
D-------------------
A-1-2 LET RING
E-------------------
            
Hard to play? Try these video lessons and learn fast. | Correct




comments powered by Disqus
↑ Back to top | Tablatures and chords are parodies/interpretations of the original songs. You may use it for private study, scholarship, research or language learning purposes only