» » »

Unsigned, B.W.W-Lazy Tabs (ver.1)

Artists:  A B C D E F G H I J K L M N O P Q R S T U V W X Y Z # 

B.W.W-Lazy Tabs (ver.1)

Unsigned Tabs
Rating:
0/5 (0 votes)
Hard to play? Try these video lessons and learn fast.
                E--------------------------------------------------------
B--------------------------------------------------------
G--------------------------------------------------------  x2
D--------------------------------------------------------
A-0-0-0-0-0-0-0-0-3-3-3-3-3-3-3-4-4-4-4-4-4-3-3-3-3-3-3-3
E--------------------------------------------------------

PAUSE 3 SECONDS

E--------------------------------------------------------
B--------------------------------------------------------
G--------------------------------------7-7-7-7-7-7-7-7-7-  x10
D--------------------------------------5-5-5-5-5-5-5-5-5-
A-7-7-7-7-7-7-9-9-9-9-9-9-9-9-9-9-9-9-9------------------
E-5-5-5-5-5-5-7-7-7-7-7-7-7-7-7-7-7-7-7------------------

E--------------------------------------------------------
B--------------------------------------------------------
G--------------------------------------------------------   x1
D--------------------------------------------------------
A-3-3-3-3-3-3-3-4-4-4-4-4-4-4-0---3-3-3-3-3-3-4-4-4-4-4-0
E------------------------------0-3-----------------------

E--------------------------------------------------------
B--------------------------------------------------------
G--------------------------------------7-7-7-7-7-7-7-7-7-  x10
D--------------------------------------5-5-5-5-5-5-5-5-5-
A-7-7-7-7-7-7-9-9-9-9-9-9-9-9-9-9-9-9-9------------------
E-5-5-5-5-5-5-7-7-7-7-7-7-7-7-7-7-7-7-7------------------

E--------------------------------------------------------
B--------------------------------------------------------
G------------7-------------------------------------------
D------------5-------------------------------------------
A-7----7-------------------------------------------------
E-5----5-------------------------------------------------
            

comments powered by Disqus
↑ Back to top | Unsigned Tabs for B.W.W-Lazy. Lyrics for acoustic guitar and electric guitar. Tablatures and chords are parodies/interpretations of the original songs. You may use it for private study, scholarship, research or language learning purposes only