» » »

Unsigned, Buzz Bombs - Screw Cops Bass tabs (ver.1)

Artists:  A B C D E F G H I J K L M N O P Q R S T U V W X Y Z # 

Buzz Bombs - Screw Cops Bass tabs (ver.1)

Unsigned Tabs
 Rating:
4/5 (4 votes)
Buzz Bombs - Screw Cops lessons Tabs too difficult? Try these video lessons and learn fast
1
                = hold
Intro
G/----------------------------------------------------------------------------------
D/--0>>>>>>>>>>>>>>>>>>>>>>>>>>>>>>>>>>>>>>>>>>>>>>>>>>>>>>>>>>>>>>>>>>>>>>>>-------
A/----------------------------------------------------------------------------------
E/-----2222-222-3333-333-2222-222-3333-333-2222-222-3333-333-2222222233333333-------

Verse x6
G/----------------------------------------------------------------------------------
D/----------------------------------------------------------------------------------
A/--55-555-5-55-555-----------------------------------------------------------------
E/------------------22-222-3-33-333-------------------------------------------------

Chorus x4
G/----------------------------------------------------------------------------------
D/----------------------------------------------------------------------------------
A/--2222222222222222-0--------------------------------------------------------------
E/---------------------0-22-222-3-33-333--------------------------------------------

Outro
First part is the same as the chorus (but only 1 time) then gets to…
% = mute really fast
G/----------------------------------------------------------------------------------
D/--------------------------------------0>>>>>>>>>>>>>>>>>>>>>>>>>>-----------------
A/--22-222-2-22-222-0-----------------------------------------------5%--------------
E/--------------------0-22-222-3-33-333---------------------------------------------
            
Submit corrections

comments powered by Disqus
↑ Back to top | Unsigned Bass for Buzz Bombs - Screw Cops. Lyrics for acoustic guitar and electric guitar. 1 Tablatures and chords are parodies/interpretations of the original songs. You may use it for private study, scholarship, research or language learning purposes only