» » »

Unsigned, Burn The World Up Tabs (ver.1)

Artists:  A B C D E F G H I J K L M N O P Q R S T U V W X Y Z # 

Burn The World Up Tabs (ver.1)

Unsigned Tabs
 Rating:
4/5 (4 votes)
Burn The World Up lessons Tabs too difficult? Try these video lessons and learn fast
                this a song my bands plays hope you like


stander tunring 
HEAVY PART
E--------------------
B--------------------
G--------------------
D---------------------
A-55-66-77-55-55------- (X6)
E-55-66-77-55-55-------  

E------------
B-------------
G-------------
D--------------
A-66-77-88----- (X3)
E-66-77-88-----

E------------
B-------------
G------------
D-------------
A-55-66-77-88-99
E-55-66-77-88-99 (X2)


SOLO PART 
E-12-13-12-13-13-12-14-15-15-17-14-15~16~--------------------------13-12-14-15
B--------------------------------------------15--13-14-14-14-15-14~
G--------------------------------------------------------------------
D------------------------------------------17--14------------------------
A---------------------------------------------------------------------
E-------------------------------------------------------------------------

E-----------------------------------
B----------------------------------
G-------------------------------------
D--------------------------------------
A-55-66-77-55-55-66-77-88-99----6---5
E-55-66-77-55-55-66-77-88-99--5---7---0 (x) 

E----------------------------------------------------
B-----------------------------------------------------
G-----------------------------------------------------
D-----------------------------5~6---------------------
A-55555-7777777-666-55-55-22---------22--------5~6--22
E-55555-7777777-666-55-55-22---------22-------------22
            
Submit corrections

comments powered by Disqus
↑ Back to top | Unsigned Tabs for Burn The World Up. Lyrics for acoustic guitar and electric guitar. Tablatures and chords are parodies/interpretations of the original songs. You may use it for private study, scholarship, research or language learning purposes only