>
 >
Broken Kingpin - Dreaded Redemption

Broken Kingpin - Dreaded Redemption Guitar Tabs

Unsigned - Broken Kingpin - Dreaded Redemption chords, tabs, tablatures, lyrics

Guitar lessons | Add/correct | Request | Top 50 tabs Artists:  A B C D E F G H I J K L M N O P Q R S T U V W X Y Z 0-9

Broken Kingpin - Dreaded Redemption Guitar Tabs – Unsigned

CD, Sheet music, Poster

Do you like Broken Kingpin - Dreaded Redemption? Share with your friends now
Tabs

Brendan Drea
*STANDARD TUNING*

( ) - Let Ring        * - Played Slightly Faster     H - Hammer On
PM  - Palm Mute       P - Pull Off                   X - Play muted
~   - Stop Dead       D - Bend String Down           U - Bend String Up

=INTRO=   
e|----------------------------------------------------------------------------
B|----------------------------------------------------------------------------
G|-------*******--------*******---------*******---------*****-----------------
D|---4---2-2-4-2----2---5-5-X-2----4----2-2-4-2----2-----5-5------------------
A|-2---2----------4---4----------2---2-----------4---4--3-3-------------------
E|----------------------------------------------------------------------------

e|----------------------------------------------------------------------------
B|----------------------------------------------------------------------------
G|-------*******--------*******---------*******---------****-***--------------
D|---4---2-2-4-2----2---5-5-X-2----4----2-2-4-2----2-----5-3--4-(2)-----------
A|-2---2----------4---4----------2---2-----------4---4--3-3--2-2--------------
E|----------------------------------------------------------------------------

=VERSE= (Played fairly slow)        
E|----------------------------|-----------------------------------------------
B|----------------------------|-----------------------------------------------
G|----------------------------|-----------------------------------------------
D|---0---0----0---0----4---4--|--0---4---(played everytime but last)----------
A|--9-9-9-9--7-7-7-7--5-5-5-5-|-5-5-5-5---(X2 than last time with-------------
E|-7---7----5---5----3---3----|0---0--------diff ending)----------------------
         (on Last time end with this)
e|----------------------------------------------------------------------------
B|-----DIFFERENT ENDING-------------------------------------------------------
G|----------------------------------------------------------------------------
D|---0---4-2------------------------------------------------------------------
A|--5-5-5---(5)---------------------------------------------------------------
E|-0---0----------------------------------------------------------------------

=PRECHORUS= (Fairly Slow)       1st ENDING              2nd ENDING
                           [--------------------]  [-------------------------]
e|------------------------|-----------------------|---------------------------
B|------------------------|-----------------------|---------------------------
G|------------------------|-----------------------|---------------------------
D|----7----7----7----7-8--|---8----8----8----8-5--|----8----8----8----8----887
A|-5-5--5-5--5-5--5-5-----|6-6--6-6--6-6--6-6-----|-6-6--6-6--6-6--6-6--6-6---
E|------------------------|-----------------------|---------------------------
      
=CHORUS=         (3x)    1st (2x's)          Last Time
e|--------------------|------------------|------------------------------------
B|--------------------|------------------|------------------------------------
G|--------------------|----------*******-|------------------------------------
D|-----PM-------PM----|-----(4)--4h5p4---|------------------------------------
A|---9-9~-----7-7~----|---5------------5-|---(5)------------------------------
E|-7---7~---5---5~----|-3----------------|-3----------------------------------

=VERSE= (Played 2X, 1st with original ending 2nd with 2nd Ending)

=PRECHORUS=

=CHORUS=

=BRIDGE=       (2x)                   Than...  (3x)   (First 2x)   
e|---------------------------------|----------------|-------------------------
B|---------------------------------|----------------|-------------------------
G|---------------------------------|PM..............|...............----------
D|---------******----------******--|---------******-|---------******----------
A|55555555--5-7-9-99999999--9-7-5--|55555555--5-7-9-|99999999--9-7-5----------
E|---------3-5-7-----------7-5-3---|---------3-5-7--|---------7-5-3-----------

  (Last x) (Fairly Slow)
e|----------------------------------------------------------------------------
B|----------------------------------------------------------------------------
G|----------------------------------------------------------------------------
D|-PM.......................--------------------------------------------------
A|-99999999--9-9---7-7---5-5--------------------------------------------------
E|----------7--7--5--5--3--3--------------------------------------------------

=FINAL CHORUS= (DISTORTION + FLANGER)
e|---------------------------------|------------------------------------------
B|---------------------------------|------------------------------------------
G|--------------------*****--------|------------------------------------------
D|--------------4DUDU-4-5D---(2x)--|------------------------------------------
A|--9-X--7-X--5-----------5--------|-9-X--7-X--(5)----------------------------
E|-7--X-5--X-3---------------------|7--X-5--X-3-------------------------------

This is my first full song.. if youd like to comment on it please rate or tell me
if you think it sucks or is decent on ICQ : 81430926





Comments


Popular Unsigned tabs & chords
Dimensions End - Desolate Bass Tabs
El Diablo - Untitled Bass Tabs
Fake I.D - Wasting Time On Me Bass Tabs
Bliss-The Cure 1 Tabs
Cool Riffage Tabs
Dark Arcanum- Tattered And Torn Tabs
Emodium -Let It All Go Tabs
Homespun- Thoughts Of You Tabs
Into The Woods With Juliet-Vanessas Son Tabs
Juniper - Letter Home Tabs


Song lyrics



↑ Back to top | Tablatures and chords are parodies/interpretations of the original songs. You may use it for private study, scholarship, research or language learning purposes only
© 2014 AZChords.com Contact us | Privacy policy | DMCA | Add/correct tabs | Request tabs | Top 50 tabs