» » »

Broken Child - 24/7 Bass tabs (ver.1)

Artists:  A B C D E F G H I J K L M N O P Q R S T U V W X Y Z # 

Broken Child - 24/7 Bass tabs (ver.1)

Unsigned
Rating:
0/5 (0 votes)

Hard to play? Try these video lessons and learn fast.
                --0---0------------¦---2--2------------¦
-------------0--0--¦-------------2--2--¦
-------------------¦-------------------¦ X8
-------------------¦-------------------¦

--5---5---5---5---¦------------------¦
------------------¦---4--4----2--2---¦
------------------¦------------------¦ X2
------------------¦------------------¦

---0--0----4--4---¦-----------5--5----¦ 
------------------¦--4--4-------------¦
------------------¦-------------------¦ X4
------------------¦-------------------¦            


--0---0------------¦---2--2------------¦
-------------0--0--¦-------------2--2--¦
-------------------¦-------------------¦ X2
-------------------¦-------------------¦                    


---0--0--0--0-----¦---2--2--2--2-----¦---3--3--3--3-----¦--5--5--5--5------¦ 
------------------¦------------------¦------------------¦------------------¦
------------------¦------------------¦------------------¦------------------¦ X2
------------------¦------------------¦------------------¦------------------¦

---0--0----4--4---¦-----------5--5----¦ 
------------------¦--4--4-------------¦
------------------¦-------------------¦ X4
------------------¦-------------------¦
            
Hard to play? Try these video lessons and learn fast. | Correct




comments powered by Disqus
↑ Back to top | Tablatures and chords are parodies/interpretations of the original songs. You may use it for private study, scholarship, research or language learning purposes only