>
 >
Broken Child - 24/7

Broken Child - 24/7 Bass Tabs

Unsigned - Broken Child - 24/7 chords, tabs, tablatures, lyrics

Guitar lessons | Add/correct | Request | Top 50 tabs Artists:  A B C D E F G H I J K L M N O P Q R S T U V W X Y Z 0-9

Broken Child - 24/7 Bass Tabs – Unsigned

CD, Sheet music, Poster

Do you like Broken Child - 24/7? Share with your friends now
Bass Tabs
--0---0---------------2--2------------
-------------0--0---------------2--2--
-------------------------------------- X8
--------------------------------------

--5---5---5---5---------------------
---------------------4--4----2--2---
------------------------------------ X2
------------------------------------

---0--0----4--4--------------5--5---- 
--------------------4--4-------------
------------------------------------- X4
-------------------------------------            


--0---0---------------2--2------------
-------------0--0---------------2--2--
-------------------------------------- X2
--------------------------------------                    


---0--0--0--0--------2--2--2--2--------3--3--3--3-------5--5--5--5------ 
------------------------------------------------------------------------
------------------------------------------------------------------------ X2
------------------------------------------------------------------------

---0--0----4--4--------------5--5---- 
--------------------4--4-------------
------------------------------------- X4
-------------------------------------





Comments


Popular Unsigned tabs & chords
Caution 8e8 - What You Do Bass Tabs
Exit - The Other One Bass Tabs
Fallen Angel - My Little Freaks Bass Tabs
One Man Show Down - To Those Who Hate Bass Tabs
Pop Up - Abuse Bass Tabs
Asswipes - Tedm Tabs
Fernands Band - Kill The Kkk Tabs
Ill By Mouth-Consumed Tabs
Into The Woods With Juliet-Vanessas Son Tabs
Last Pocket - Untitled Tabs


Song lyrics



↑ Back to top | Tablatures and chords are parodies/interpretations of the original songs. You may use it for private study, scholarship, research or language learning purposes only
© 2014 AZChords.com Contact us | Privacy policy | DMCA | Add/correct tabs | Request tabs | Top 50 tabs