>
 >
Breakdown-I Told You No

Breakdown-I Told You No Guitar Tabs

Unsigned - Breakdown-I Told You No chords, tabs, tablatures, lyrics

Guitar lessons | Add/correct | Request | Top 50 tabs Artists:  A B C D E F G H I J K L M N O P Q R S T U V W X Y Z 0-9

Breakdown-I Told You No Guitar Tabs – Unsigned

CD, Sheet music, Poster

Do you like Breakdown-I Told You No? Share with your friends now
Tabs
E -00-45b-40--00-45b-40-----------00-45b-40-000-
       a-----------------------00-45-4-0---------------                          
       d-----------------------------------------------
       g ----------------------------------------------X 5 times
       b ----------------------------------------------
       e-----------------------------------------------
  

       E-0-0-4-5-4-0-----------------------------0-0-4-5-4-0----
       a-0-0-6-7-6-0--X-2-times----0-0-4-5-4-0---0-0-6-7-6-0----X 5 times
       d---------------------------0-0-6-7-6-0------------------
       g--------------------------------------------------------
       b--------------------------------------------------------
       e -------------------------------------------------------

                           SOLO
       E------------------------------------------
       a------------------------------------------
       d--0-4h5p4-00-------10-10-10-10-10-10-10-10
       g------------------------------------------
       b------------------------------------------
       e -----------------------------------------


       E-----------------------------------------
       a-----------------------------------------
       d--8-8-8-8-8-8-8-8---6-6-6-6-6-6-6-6------
       g-----------------------------------------
       b-----------------------------------------
       e ----------------------------------------


       E-----------------------------------------
       a-----------------------------------------
       d--10-10-10-10-10-10-10-10----------------X 2 times
       g-----------------------------------------
       b-----------------------------------------
       e-----------------------------------------
                         then repeat twice through
                        p= pull off
                        h= hammer on
                        b= bend





Comments


Popular Unsigned tabs & chords
Aimless- Why Cant You See Bass Tabs
Battery Check - Castration Bass Tabs
Bruised And Broken Bass Tabs
Jazz Riff Bass Tabs
Latursim - Burn The Money Bass Tabs
Backyard Wreck-Untitled Tabs
Dagahzed- Inconceived Tabs
Drunkenrodeoclowns-Your Mom Is A Dyke Tabs
Gba - Over And Over Tabs
In Question - Low Tabs


Song lyrics



↑ Back to top | Tablatures and chords are parodies/interpretations of the original songs. You may use it for private study, scholarship, research or language learning purposes only
© 2014 AZChords.com Contact us | Privacy policy | DMCA | Add/correct tabs | Request tabs | Top 50 tabs