» » »

Breakdown-I Told You No Tabs (ver.1)

Artists:  A B C D E F G H I J K L M N O P Q R S T U V W X Y Z # 

Breakdown-I Told You No Tabs (ver.1)

Unsigned
Rating:
0/5 (0 votes)

Hard to play? Try these video lessons and learn fast.
                E -00-45b-40--00-45b-40-----------00-45b-40-000-
       a-----------------------00-45-4-0---------------                          
       d-----------------------------------------------
       g ----------------------------------------------X 5 times
       b ----------------------------------------------
       e-----------------------------------------------
  

       E-0-0-4-5-4-0-----------------------------0-0-4-5-4-0----
       a-0-0-6-7-6-0--X-2-times----0-0-4-5-4-0---0-0-6-7-6-0----X 5 times
       d---------------------------0-0-6-7-6-0------------------
       g--------------------------------------------------------
       b--------------------------------------------------------
       e -------------------------------------------------------

                           SOLO
       E------------------------------------------
       a------------------------------------------
       d--0-4h5p4-00-------10-10-10-10-10-10-10-10
       g------------------------------------------
       b------------------------------------------
       e -----------------------------------------


       E-----------------------------------------
       a-----------------------------------------
       d--8-8-8-8-8-8-8-8---6-6-6-6-6-6-6-6------
       g-----------------------------------------
       b-----------------------------------------
       e ----------------------------------------


       E-----------------------------------------
       a-----------------------------------------
       d--10-10-10-10-10-10-10-10----------------X 2 times
       g-----------------------------------------
       b-----------------------------------------
       e-----------------------------------------
                         then repeat twice through
                        p= pull off
                        h= hammer on
                        b= bend
            
Hard to play? Try these video lessons and learn fast. | Correct




comments powered by Disqus
↑ Back to top | Tablatures and chords are parodies/interpretations of the original songs. You may use it for private study, scholarship, research or language learning purposes only