» » »

Bluish Tune Tabs (ver.1)

Artists:  A B C D E F G H I J K L M N O P Q R S T U V W X Y Z # 

Bluish Tune Tabs (ver.1)

Unsigned
Rating:
0/5 (0 votes)

Hard to play? Try these video lessons and learn fast.
                s= slide...(#) fingering



e|---------------------------| repeat 
b|---------------------------|
g|---------------------------|
d|------------2-0--4--0-2----|
a|-----------2---2---2-------|
e|-0-3s4(4)------------------|


e|---------------------------| same, but higher
b|---------------------------|
g|------------2-0--4--0-2----|
d|-----------2---2---2-------|
a|-0-3s4(4)------------------|
e|---------------------------|

u can play this however u want....sounds cooler with a jazzy/blue beat
            
Hard to play? Try these video lessons and learn fast. | Correct




comments powered by Disqus
↑ Back to top | Tablatures and chords are parodies/interpretations of the original songs. You may use it for private study, scholarship, research or language learning purposes only