» » »

Unsigned, Blueish Bass tabs (ver.1)

Artists:  A B C D E F G H I J K L M N O P Q R S T U V W X Y Z # 

Blueish Bass tabs (ver.1)

Unsigned Tabs
 Rating:
4/5 (4 votes)
Blueish lessons Tabs too difficult? Try these video lessons and learn fast
                (Riff)


Tuning:standard


2x
G------------------------------------------------------------------|
D----7-----5v----3-2---------------7-----5v---7/10-9---------------|
A-0-5--0-0-----0-----3-0-3/5v---0-5--0-0----0--------10-0-10/12v---|
E------------------------------------------------------------------|
2x
G----------------------------------------------------------------17-----|
D-----15-----12v---12/15-14-----------------15-----12v---12/15-14--15---|
A-0-13---0-0-----0---------15-0-15/17v--0-13---0-0-----0-------------17v|
E-----------------------------------------------------------------------|
2x
G-----------------------------|
D-----15-----12v-----12-----7v|
A-0-13---0-0-----0-10---0-0---|
E-----------------------------|
repeat from beginning.
KEY
v:vibrato
/:slide up
            
Submit corrections

comments powered by Disqus
↑ Back to top | Unsigned Bass for Blueish. Lyrics for acoustic guitar and electric guitar. Tablatures and chords are parodies/interpretations of the original songs. You may use it for private study, scholarship, research or language learning purposes only