» » »

Unsigned, Blood Pools-I Don Know How Tabs (ver.1)

Artists:  A B C D E F G H I J K L M N O P Q R S T U V W X Y Z # 

Blood Pools-I Don Know How Tabs (ver.1)

Unsigned Tabs
 Rating:
4/5 (4 votes)
Blood Pools-I Don	 Know How lessons Tabs too difficult? Try these video lessons and learn fast
                Intro-"I Dont Know How"
e)-------------------------------------------------------------------------
b)---------3--0---------0--------0-----3--0------0----------------------
g)-------0------------0--------0------0---------0------------------------
d)----2------------2--------2-------2---------2--------------------------
a)--3------------3--------0-------3---------3-------0~~~---------------
E)------------------------------------------------------------------------

e)------------------------------------------------------------------------
b)--3---(0)---0-----------------------------------------------------------
g)--0---(0)---0----------repeat-------------------------------------------
d)--2---(2)---2-----------------------------------------------------------
a)--3---(3)---0-----------------------------------------------------------
E)------------------------------------------------------------------------
play ( ) 8x

e)-------------------------------------------------------------
b)---------3------------3------------3-----------0------------
g)-------0---0--------0---0-------0---0-------0---0----------
d)-----2-------2----2-------2---2-------2---2-------2--------Back to intro.
a)---3------------0------------3-----------0-----------0~~~--
E)--------------------------------------------------------------
I'd give the lyrics but the site gets mad, so I wont.
(Musik by Chavez! Lyrics and vocals by McLain!)
            
Submit corrections

comments powered by Disqus
↑ Back to top | Unsigned Tabs for Blood Pools-I Don Know How. Lyrics for acoustic guitar and electric guitar. Tablatures and chords are parodies/interpretations of the original songs. You may use it for private study, scholarship, research or language learning purposes only