» » »

Blood Never Drys - A Thank-You Letter Tabs (ver.1)

Artists:  A B C D E F G H I J K L M N O P Q R S T U V W X Y Z # 

Blood Never Drys - A Thank-You Letter Tabs (ver.1)

Unsigned
Rating:
0/5 (0 votes)

Tabs too difficult? Try these video lessons and learn fast.
                I wrote this song on a 7-string guitar in drop a tuning (A,E,A,D,B,G,E), but it also sounds good in drop c tuning (C,G,C,F,A,D) on a 6-string


A Thank-you Letter

KEY:
. - Palm mute
* - Tremelo
~ - Let ring
 

                  (clean)
|----------------------------------------------|
|---6--6--6--5--6--6--6--5--6--5--6--5---------|
|--7--7--7--6--7--7--7--6--7--6--7--6----------|
|-0--8--0--7--0-----0-----8--7-----------------|
|----------------0-----0--------0--0-----------|
|----------------------------------------------|
|----------------------------------------------|



                                    (8th time)
|------------------------------||----------------|
|-6-6--8-----------------------||-6-6--8~~~------|
|-7-7--9-----------------------||-7-7--9~~~------|
|-0-8-10-----------------------||-0-8-10~~~------|
|-----------0-0-0--------------||----------------|
|-----------0-0-0--------------||----------------|
|-----------0-0-0--------------||----------------|
            . . .



|----------------------------------------------|
|----------6----------------8------------------|
|----------7----------------9------------------|
|----------8---------------10------------------|
|-0--0-0---------0-0-0-0-----------------------|
|-0--0-0---------0-0-0-0-----------------------|
|-0--0-0---------0-0-0-0-----------------------|
  .  . .         . . . .



|----------------------------------------------|
|----------------------------------------------|
|----------------------------------------------|
|----------------------------------------------|
|--0--0--0--0--0--0--0--0----------------------|
|--0--0--0--0--0--0--0--0----------------------|
|--0--0--0--0--0--0--0--0----------------------|
   .  .  .  .  .  .  .  .


                                    (every 4th time)
|-------------------------|  |--------------------------|
|-------------------------|  |--------------------------|
|-------------------------|  |--------------------------|
|-------------------------|  |--------------------------|
|--0--0-0--2-1--0--000-0--|  |--0-0-0-0--2-1--0--000-0--|
|--0--0-0--2-1--0--000-0--|  |--0-0-0-0--2-1--0--000-0--|
|--0--0-0--2-1--0--000-0--|  |--0-0-0-0--2-1--0--000-0--|
   .  . .       .  ...          . . . .       .  ...


                  (clean)
|----------------------------------------------|
|----6---5-------------------------------------|
|---7---6--------------------------------------|
|--0---7---------------------------------------|
|----------------------------------------------|
|----------------------------------------------|
|----------------------------------------------|




|----------------------------------------------|
|--6--6---------------6-5-5-5------------------|
|--7--7---------------7-6-6-6------------------|
|--0--8-------------------7-7------------------|
|----------0000-------------0----0000----------|
|----------0000------------------0000----------|
|----------0000------------------0000----------|
           ....                  ....


                                   (every 4th time)
|--------------------------||-----------------------------|
|--------------------------||-----------------------------|
|--------------------------||-----------------------------|
|--------------------------||-----------------------------|
|-00010-0008-0007-00010878-||-00010~-0008~-0007~-00010878-|
|-00010-0008-0007-000------||-00010~-0008~-0007~-000------|
|-00010-0008-0007-000------||-00010~-0008~-0007~-000------|
  ...   ...  ...  ...*****    ...    ...   ...   ...


                                      (4th time)
|--------------------------||-------------------------------|
|--------------------------||-------------------------------|
|--------------------------||-------------------------------|
|--------------------------||-------------------------------|
|-00010-0008-0007-00010878-||-00010~-0008~-0007~-000108754~-|
|-00010-0008-0007-000------||-00010~-0008~-0007~-000--------|
|-00010-0008-0007-000------||-00010~-0008~-0007~-000--------|
  ...   ...  ...  ...         ...    ...   ...   ...




|-----------------------------------------------|
|-----------------------------------------------|
|-----------------------------------------------|
|-----------------------------------------------|
|--00010~~~--0008~~~--0007~~~-------------------|
|--00010~~~--0008~~~--0007~~~-------------------|
|--00010~~~--0008~~~--0007~~~-------------------|
   ...       ...      ...


             (gradualy speed up)
|----------------------------------------------------|
|----------------------------------------------------|
|----------------------------------------------------|
|----------------------------------------------------|
|--0000----0000----0000----0000----------------------|
|--0000----0000----0000----0000----------------------|
|--0000----0000----0000----0000----------------------|
   ....    ....    ....    ....



|----------------------------------------------|
|----------------------------------------------|
|----------------------------------------------|
|----------------------------------------------|
|--4444-3333-4444-0000-------------------------|
|--4444-3333-4444-0000-------------------------|
|--4444-3333-4444-0000-------------------------|
   .... .... .... ....



|-----------------------------------------------|
|-----------------------------------------------|
|-----------------------------------------------|
|-----------------------------------------------|
|--44-33-44-00----------------------------------|
|--44-33-44-00----------------------------------|
|--44-33-44-00----------------------------------|
            
Tabs too difficult? Try these video lessons and learn fast.




comments powered by Disqus
↑ Back to top | Tablatures and chords are parodies/interpretations of the original songs. You may use it for private study, scholarship, research or language learning purposes only