» » »

Unsigned, Blank- Stack The Sticks Tabs (ver.1)

Artists:  A B C D E F G H I J K L M N O P Q R S T U V W X Y Z # 

Blank- Stack The Sticks Tabs (ver.1)

Unsigned Tabs
Rating:
0/5 (0 votes)
Blank- Stack The Sticks lessons Tabs too difficult? Try these video lessons and learn fast
                verse
--------------------------------------
--------------------------------------
--------------------------------------
-------7-8-7-----7-8-----------------
---3----------3-----------------------
--------------------------------------

chorse
----------------------------------------------------
----------------------------------------------------
---9--9--9--9--------------------------7--7--7--7---
---9--9--9--9--9--9--9--9--7--7--7--7--7--7--7--7---
---7--7--7--7--9--9--9--9--7--7--7--7--5--5--5--5---
---------------7--7--7--7--5--5--5--5---------------

brige 
----------------------------------------------
----------------------------------------------
----------------------------------------------
--9--^-----9--9--------------------------------
--6--^-----6--6------------------------------
----------------------------------------------

solo 
--5---8-7-6----------------------------------
---------------------------------------------
-----------------------------------------------
---------------------------------------------
---------------------------------------------
---------------------------------------------

blank is a grunge band like nirvana. this is one of are songs
            

comments powered by Disqus
↑ Back to top | Unsigned Tabs for Blank- Stack The Sticks. Lyrics for acoustic guitar and electric guitar. Tablatures and chords are parodies/interpretations of the original songs. You may use it for private study, scholarship, research or language learning purposes only