» » »

Blacksummer-Revenge Bass tabs (ver.1)

Artists:  A B C D E F G H I J K L M N O P Q R S T U V W X Y Z # 

Blacksummer-Revenge Bass tabs (ver.1)

Unsigned
Rating:
0/5 (0 votes)

Hard to play? Try these video lessons and learn fast.
                ((verse1))
G:-------7777-------7777-------7777--------------------------------------------------
D:----555--------555--------555------------------------------------------------------
A:-----------------------------------------------------------------------------------
E:-0-0--------0-0--------0-0---------------------------------------------------------

((chorus))
G:-----------------------------------------------------------------------------------
D:-----------------------------------------------------------------------------------
A:--33---555----333-555---------333-555------5555------------------------------------
E:----333---555---------333-555----------0000---------------------------------------

((verse2))
G:-------7777-------7777-------7777--------------------------------------------------
D:----555--------555--------555------------------------------------------------------
A:-----------------------------------------------------------------------------------
E:-0-0--------0-0--------0-0---------------------------------------------------------

((Chorus))
G:-----------------------------------------------------------------------------------
D:-----------------------------------------------------------------------------------
A:--33---555----333-555---------333-555------5555------------------------------------
E:----333---555---------333-555----------0000----------------------------------------

G:-----------------------------------------------------------------------------------
D:-----------------------------------------------------------------------------------
A:--33---555----333-555--------333-555------5555-------------------------------------
E:----333---555---------333-555---------0000-----------------------------------------
            
Hard to play? Try these video lessons and learn fast. | Correct




comments powered by Disqus
↑ Back to top | Tablatures and chords are parodies/interpretations of the original songs. You may use it for private study, scholarship, research or language learning purposes only