» » »

Bio - Sharp Objects Tabs (ver.1)

Artists:  A B C D E F G H I J K L M N O P Q R S T U V W X Y Z # 

Bio - Sharp Objects Tabs (ver.1)

Unsigned
Rating:
0/5 (0 votes)

Hard to play? Try these video lessons and learn fast.
                Band- Bio
Song- Sharp Objects
Album- 001
Written and Produced By Chelsea Stevenson 

ENJOY!!

Intro-
-|----0-0---------0--------------------0-0-------------0--------------------|-
-|---------3-2--------3-3--3--2-2-2----------3-2-------------5--------------|-
-|--------------------------------------------------------------------------|-
-|--------------------------------------------------------------------------|-  x4
-|--------------------------------------------------------------------------|-
-|--------------------------------------------------------------------------|-



Chours-
-|---3-3-3-3-3-3-3-3--6-6-6-6-6-6-6-6--1-1-1-1-1-1-1-1--10-10-10-10---------|-
-|---5-5-5-5-5-5-5-5--8-8-8-8-8-8-8-8--3-3-3-3-3-3-3-3--12-12-12-12---------|-
-|--------------------------------------------------------------------------|-
-|--------------------------------------------------------------------------|-  x4
-|--------------------------------------------------------------------------|-
-|--------------------------------------------------------------------------|-


Solo-
-|--11--------------------11------------------------------------------------|-
-|------9-11-13-11-9-11--------9-11-13-15-13-15-15-13-17--------------------|-
-|--------------------------------------------------------------------------|-
-|--------------------------------------------------------------------------|-  x4
-|--------------------------------------------------------------------------|-
-|--------------------------------------------------------------------------|-

That's It!!! Rock On!!!
            
Hard to play? Try these video lessons and learn fast. | Correct




comments powered by Disqus
↑ Back to top | Tablatures and chords are parodies/interpretations of the original songs. You may use it for private study, scholarship, research or language learning purposes only