» » »

Bingongie Tabs (ver.1)

Artists:  A B C D E F G H I J K L M N O P Q R S T U V W X Y Z # 

Bingongie Tabs (ver.1)

Unsigned
Rating:
0/5 (0 votes)

Tabs too difficult? Try these video lessons and learn fast.
                Long Gone 
“Bingongie”

This is a BAND!!!!!

Intro (after drums start)
|-----------------------------------------------------|
|-----------------------------------------------------|
|--------------------------------0-3-2-------0-3-2----|  x6
|--------------------------0-3-2-------0-3-2----------|
|-------0-3-2--------0-3-2----------------------------|
|-0-3-2-------0-3-2-----------------------------------|


|---------------------------------------------------------------------|
|---------------------------------------------------------------------|
|---------------------------------------------------------------------|
|-6-6-6-6--8--6-6-6-6--8--6-6-6-6--8--10-10-10-10--8--10-10-10-10--8--|
|-6-6-6-6--8--6-6-6-6--8--6-6-6-6--8--12-12-12-12--10-12-12-12-12— 10-|
|-4-4-4-4--6--4-4-4-4--6--4-4-4-4--6--12-12-12-12--10-12-12-12-12--10-|


|-----------------------------------------------------|
|-----------------------------------------------------|
|--------------------------------0-3-2-------0-3-2----|  x4
|--------------------------0-3-2-------0-3-2----------|
|-------0-3-2--------0-3-2----------------------------|
|-0-3-2-------0-3-2-----------------------------------|


|----------------------------------------------------------------------|
|----------------------------------------------------------------------|
|----------------------------------------------------------------------| x2
|-6-6-6-6--8--6-6-6-6--8--6-6-6-6--8--10-10-10-10--8--10-10-10-10—(8)--|
|-6-6-6-6--8--6-6-6-6--8--6-6-6-6--8--12-12-12-12--10-12-12-12-12— (10)|
|-4-4-4-4--6--4-4-4-4--6--4-4-4-4--6--12-12-12-12--10-12-12-12-12—(10)-|


there also is a solo...
            
Tabs too difficult? Try these video lessons and learn fast.


comments powered by Disqus
↑ Back to top | Tablatures and chords are parodies/interpretations of the original songs. You may use it for private study, scholarship, research or language learning purposes only