» » »

Unsigned, Bgm- Red Letter Days Tabs (ver.1)

Artists:  A B C D E F G H I J K L M N O P Q R S T U V W X Y Z # 

Bgm- Red Letter Days Tabs (ver.1)

Unsigned Tabs
 Rating:
4/5 (4 votes)
Bgm- Red Letter Days lessons Tabs too difficult? Try these video lessons and learn fast
                (verse)
|--------------------|
|--------------------|
|----7--5------------|
|----7--5---5--------|
|----5--3-x-5--------|          x7
|---------x-3--------|

(chorus)
|--5--5-x-3-3-3------|
|--5--5-x-3-3-3------|
|--6--6-x-4-4-4------|          X4
|--7--7-x-5-5-5------|
|--7--7-x-5-5-5------|
|--5--5-x-3-3-3------|

(verse)
|--------------------|
|--------------------|
|----7--5------------|
|----7--5---5--------|
|----5--3-x-5--------|          x7
|---------x-3--------|

(chorus)
|--5--5-x-3-3-3------|
|--5--5-x-3-3-3------|
|--6--6-x-4-4-4------|          X4
|--7--7-x-5-5-5------|
|--7--7-x-5-5-5------|
|--5--5-x-3-3-3------|

Drum solo (don't play)

(chorus)
|--5--5-x-3-3-3------|
|--5--5-x-3-3-3------|
|--6--6-x-4-4-4------|          X4
|--7--7-x-5-5-5------|
|--7--7-x-5-5-5------|
|--5--5-x-3-3-3------|

(chorus #2)
|--7--7-x-5-5-5------|
|--7--7-x-5-5-5------|
|--8--8-x-6-6-6------|          X4
|--9--9-x-7-7-7------|
|--9--9-x-7-7-7------|
|--7--7-x-5-5-5------|

and Rythm Guitar-Josh

The BGM Rocks
            
Submit corrections

comments powered by Disqus
↑ Back to top | Unsigned Tabs for Bgm- Red Letter Days. Lyrics for acoustic guitar and electric guitar. Tablatures and chords are parodies/interpretations of the original songs. You may use it for private study, scholarship, research or language learning purposes only