» » »

Unsigned, Beautiful-First Dance Tabs (ver.1)

Artists:  A B C D E F G H I J K L M N O P Q R S T U V W X Y Z # 

Beautiful-First Dance Tabs (ver.1)

Unsigned Tabs
Rating:
0/5 (0 votes)
Beautiful-First Dance lessons Tabs too difficult? Try these video lessons and learn fast
                4 times

1.-----------------------------------
2.-----------------------------------
3.-----------------------------------
4.-------12--------10------9-----10--
5-----12---12----10--10---9-9--10--10
6.--10---------10--------7----8------

5 times each up and down sturm repeat pattern 4 times 

1.---------------
2.---------------
3.---------------
4.12--10--9--10--
5.12--10--7--10--
6.10--10--7--8---

let each note ring and play through once

1.
2.
3.
4.12--12--9--11--
5.12--12--9--11--
6.10--9---7--9---

repeat all 3 more times
            

comments powered by Disqus
↑ Back to top | Unsigned Tabs for Beautiful-First Dance. Lyrics for acoustic guitar and electric guitar. Tablatures and chords are parodies/interpretations of the original songs. You may use it for private study, scholarship, research or language learning purposes only