» » »

Unsigned, Battery Check - Castration Bass tabs (ver.1)

Artists:  A B C D E F G H I J K L M N O P Q R S T U V W X Y Z # 

Battery Check - Castration Bass tabs (ver.1)

Unsigned Tabs
Rating:
0/5 (0 votes)
Battery Check - Castration lessons Tabs too difficult? Try these video lessons and learn fast
                Castration
Written by Thomas Michel 
Bass Line

Verse
G------------------------------------------
D------------------------------------------	
A-----------------------5555---------------
E---22---77---55---------------------------

Pre Chorus 1
G------------------------------------------
D------------------------------------------
A---------------77-------------------------
E---99---77-----------5555-----------------

Pre Chorus 2
G------------------------------------------
D------------------------------------------
A--------------77---9----------------------
E---99---77--------------------------------

Chorus 1
G-------------------------------------------------
D-------------------------------------------------
A------------------------77777--------------------
E---99999---77777--------------55555--------------

Chorus 2
G-----------------------------------------------------------------
D-----------------------------------------------------------------
A------------------------77777---9--------------------------------
E---99999---77777-------------------------------------------------

Solo
D----------------------------------------------------------------
G------------------------9-999---0-00000-------------------------
A---9-999----7-777-----------------------------------------------
E----------------------------------------------------------------
            
Submit corrections

comments powered by Disqus
↑ Back to top | Unsigned Bass for Battery Check - Castration. Lyrics for acoustic guitar and electric guitar. Tablatures and chords are parodies/interpretations of the original songs. You may use it for private study, scholarship, research or language learning purposes only