» » »

Unsigned, Bass Riffs By Kyle Woods Bass tabs (ver.1)

Artists:  A B C D E F G H I J K L M N O P Q R S T U V W X Y Z # 

Bass Riffs By Kyle Woods Bass tabs (ver.1)

Unsigned Tabs
 Rating:
4/5 (4 votes)
Bass Riffs By Kyle Woods lessons Tabs too difficult? Try these video lessons and learn fast
                These are some bass riffs which i wrote. They dont all go together, they are just various riffs. It is mainly all played by slapping and plucking. These riffs have a sort of funky sound to them, enjoy...

Tunning: E, A, D, G
p- pluck
s- slap

G:------------------4-|
D:----------2-------2-|
A:-----2-3----3-2-X---|
E:-3-x----------------|
   s s s s  s s s s p

G:-------7-7-------5-5-------4-4-------5-5-----5-----2-|
D:-----------------------------------------------------|
A:-----------------------------------------3-x---3-x---|
E:-0-5-x-----0-3-x-----0-2-x-----0-3-x-----------------|
   s s s p p s s s p p s s s p p s s s p p s s p s s p   


G:------12-9/10/9--------------12-11/12/11/14-11-12-15-|
D:----------------10-9---------------------------------|
A:-9/10---------------10-9-9/10------------------------|
E:-----------------------------------------------------|
   s s  p  p p  p s  s s s s  s p p  p  p

G:-4---2/3/2-----------2-------2-3/|
D:-2---------3-2-----------------1/|
A:---------------3-3-x---0-3-x-----|
E:---------------------------------|
   p   p p p s s s s s p s s s p p

G:-------4-----------------4-------------6/4-|
D:---------------2---------------------------|
A:---------0-2-3---3-----------1-1/3-4-x-----|
E:-0-2-x-------------0-2-x---2---------------|
   s s s p s s s s s s s s p s s s   s s p

G:---------------7-9-7-6-7-6--------------------|
D:-----------7-9-------------7-6----------------|
A:-------7-9--------------------7-6-------------|
E:-0-7-9---------------------------8-8-8-3-3-3-3|

---------------7-9-10-9-7----------------------|
-----------7-9------------9-7------------------|
-------7-9--------------------9-7--------------|
-0-7-9----------------------------8-8-8-3-3-3-3|

A couple of these riffs I use in songs written by my band, and we have copyright laws, so now stealing. Later
            
Submit corrections

comments powered by Disqus
↑ Back to top | Unsigned Bass for Bass Riffs By Kyle Woods. Lyrics for acoustic guitar and electric guitar. Tablatures and chords are parodies/interpretations of the original songs. You may use it for private study, scholarship, research or language learning purposes only