» » »

Unsigned, Band - Radley Song Take Some Time Bass tabs (ver.1)

Artists:  A B C D E F G H I J K L M N O P Q R S T U V W X Y Z # 

Band - Radley Song Take Some Time Bass tabs (ver.1)

Unsigned Tabs
Rating:
0/5 (0 votes)
Band - Radley Song Take Some Time lessons Tabs too difficult? Try these video lessons and learn fast
                Song- Take some Time
Artist- Radley
Demo- You broke Your Promise
Bassist- Spencer Radley (B.j)

this is a song from my band and i really like it so i wanna
have it on the site, i wrote this my self so please dont steel it.
anyway we already have it dated and recored 

intro
g--------------------------5----------------
d------7----------3-0-3-3----3------5----5--
a-5-5-----0--1-1----------------3-3----3----
e-------------------------------------------

g--------------------------2----------------
d------7----------3----3-3----3--------2----
a-5-5----5---1-1----1--------------3-3----3-
e-------------------------------------------

g--------------------------------
d-------------------3-3xx--------
a--5-5xx----1-1xx----------3-3xx-
e--------------------------------

g-----------------------------------------
d---------------------3333-3--------------
a-5555-5-----1111-1----------3333-3/5~~~--
e-----------------------------------------

g--------------------------------------------------------------
d---------------------------------333333333333-----------------
a-5555555555555-0--11111111111-0----------------33333333333333-
e--------------------------------------------------------------

g-------------------------------------------------------------
d-------------------------------------------------------------
a-55555555555555-66666666666666-11111111111111-33333333333333-
e-------------------------------------------------------------

then go back 2 the intro but play at bridge (2x)

thats one of our songs..maybe u'll hear it on the radio sum day 
and u'll say "i was one of the 1st 2 learn that"
            

comments powered by Disqus
↑ Back to top | Unsigned Bass for Band - Radley Song Take Some Time. Lyrics for acoustic guitar and electric guitar. Tablatures and chords are parodies/interpretations of the original songs. You may use it for private study, scholarship, research or language learning purposes only