» » »

Unsigned, Band-Mourning Death Song-Saddness Tabs (ver.1)

Artists:  A B C D E F G H I J K L M N O P Q R S T U V W X Y Z # 

Band-Mourning Death Song-Saddness Tabs (ver.1)

Unsigned Tabs
 Rating:
4/5 (4 votes)
Band-Mourning Death    Song-Saddness lessons Tabs too difficult? Try these video lessons and learn fast
1
                Here is a nifty little something I made up, folks! Enjoy!


-----5--4--2---2--4--2-
---2---------2---------
-----------------------  X2
-----------------------
-----------------------
-----------------------

----4--2--0---0--2--0
--0---------2--------
---------------------   X2
---------------------
---------------------
---------------------

--0--1--2--1--0---------------------------
--0--1--2--1--0--0--1--2--1--0------------
-----------------0--1--2--1--0--0--4--2--0
--------------------------------0--4--2--0 Repeat from top and then 
------------------------------------------
------------------------------------------
SOLO
--12--12-----13--13----12--12---13--13--13~~~~--12--11--9--9/12--9/12--9/12~~~~
SOLO CONT.
--9-----9-----9-----10------10------10-----12------13-----9-----9/12---9/13~~~~
-----9-----9-----9------9--------9------9------9-------------------------------
repeat from top again but don't repeat the solo a second time
OUTRO
------4-4---2--2---0--0-------0--0--2--2---0---0~~~~~~~~~~~00~~~~~~00~~~~~~
--0------------------------0-----------------------------------------------
            
Submit corrections

comments powered by Disqus
↑ Back to top | Unsigned Tabs for Band-Mourning Death Song-Saddness. Lyrics for acoustic guitar and electric guitar. 1 Tablatures and chords are parodies/interpretations of the original songs. You may use it for private study, scholarship, research or language learning purposes only