» » »

Awesome Tabs (ver.1)

Artists:  A B C D E F G H I J K L M N O P Q R S T U V W X Y Z # 

Awesome Tabs (ver.1)

Unsigned
Rating:
0/5 (0 votes)

Hard to play? Try these video lessons and learn fast.
                Tuning-Drop D
D, A, D, G, B, E

--------|-12----8----10---|-5---8----3--|------|-5---8----3------|------------
--------|-12----8----10---|-5---8----3--|------|-5---8----3------|------------
--------|-12-14-8-10-10-12|-5-7-8-10-3-5|------|-5-7-8-10-3-5----|------------
-12-8-10|-12-14-8-10-10-12|-5-7-8-10-3-5|-5-8-3|-5-7-8-10-3-5-5-3|-5-8-3-5-3--
-12-8-10|-12----8----10---|-5---8----3--|-5-8-3|-5---8----3---5-3|-5-8-3-5-3--
-12-8-10|-12----8----10---|-5---8----3--|-5-8-3|-5---8----3---5-3|-5-8-3-5-3--
                                                                              

--------12----------12----------12----------16--------------------------------
-----14----14----14----14----14----14----14-----------------------------------
--16----------16----------16----------16--------------------------------------
                                                                              

-------12----------12----------12----------12----|-------|-12----8----10------
----14----14----14----14----14----14----14----16-|-------|-12----8----10------
-16----------16----------16----------16----------|-------|-12-14-8-10-10-12---
-------------------------------------------------|12-8-10|-12-14-8-10-10-12---
-------------------------------------------------|12-8-10|-12----8----10------
-------------------------------------------------|12-8-10|-12----8----10------
                                                                              

-5---8----3-------------------------------------------------------------------
-5---8----3-------------------------------------------------------------------
-5-7-8-10-3-5-----------------------------------------------------------------
-5-7-8-10-3-5-----------------------------------------------------------------
-5---8----3-------------------------------------------------------------------
-5---8----3-------------------------------------------------------------------
            
Hard to play? Try these video lessons and learn fast. | Correct




comments powered by Disqus
↑ Back to top | Tablatures and chords are parodies/interpretations of the original songs. You may use it for private study, scholarship, research or language learning purposes only