» » »

Attic - Missing Illusion Bass tabs (ver.1)

Artists:  A B C D E F G H I J K L M N O P Q R S T U V W X Y Z # 

Attic - Missing Illusion Bass tabs (ver.1)

Unsigned
Rating:
0/5 (0 votes)

Hard to play? Try these video lessons and learn fast.
                Chorus:
G|--------------|----------/5--|-------------|-----------|
D|--------------|------------7-|-5-5-5-5-5-2-|-3-3-3-3-3-|
A|-0--0-0-0-0-2-|-3--3-3-3-----|-------------|-----------|
E|--------------|--------------|-------------|-----------|

Bridge:
G|----------------|-----------------------|----------------|-----------------------|
D|----------------|---------------2-0-----|----------------|-----------------7--5--|
A|----------------|-------------------3-2-|----------------|---------------7--5----|
E|-1--1-1--3--3-3-|-5-5-5-5-5-5-5---------|-1--1-1--3--3-3-|-5-5-5-5-5-5-5---------|

Verse:
A - C - B - G
            
Hard to play? Try these video lessons and learn fast. | Correct




comments powered by Disqus
↑ Back to top | Tablatures and chords are parodies/interpretations of the original songs. You may use it for private study, scholarship, research or language learning purposes only