» » »

Attention Dephicit - Add Tabs (ver.1)

Artists:  A B C D E F G H I J K L M N O P Q R S T U V W X Y Z # 

Attention Dephicit - Add Tabs (ver.1)

Unsigned
Rating:
0/5 (0 votes)

Hard to play? Try these video lessons and learn fast.
                A.D.D
                        As recorded by Attention Dephicit

Music by Attention Dephicit
Arranged by Tito Evanso

 4/4
  Gtr I
|--------------------------------|
|--------------------------------|
|--------------------------------|
|-------------------------7-7----|x4
|-----7-5-----9-7-----5---7-7----|
|-5-5-----7-7-----3-3---3-5-5----|


  Gtr II
  PM--------------------|
|--------------------------------|
|--------------------------------|
|--------------------------------|
|-7-7-7-7-9-9-9-9-5-5-5-5-7-7----|x3 Come in on 2nd time through
|-7-7-7-7-9-9-9-9-5-5-5-5-7-7----|
|-5-5-5-5-7-7-7-7-3-3-3-3-5-5----|


  Gtrs I, II
                                PM|   PM|   PM|   PM|
|----------------------------------------------------------|
|----------------------------------------------------------|
|---------------------7-7-------------------------7-7-7----|
|-7-7-7-7-9-9-5-5-5-5-7-7-------7-7-7-9-9-9-5-5-5-7-7-7----|x5 Last time palm mute
|-7-7-7-7-9-9-5-5-5-5-5-5-------7-7-7-9-9-9-5-5-5-5-5-5----|
|-5-5-5-5-7-7-3-3-3-3-----------5-5-5-7-7-7-3-3-3----------|


  Gtrs I, II
  PM|   PM|   PM|   PM|
|----------------------------|
|----------------------------|
|-------------7-7-7-9-9-9----|
|-7-7-7-9-9-9-7-7-7-9-9-9----|x4
|-7-7-7-9-9-9-5-5-5-7-7-7----|
|-5-5-5-7-7-7----------------|


  Gtrs I, II
                               PM|   PM|   PM|   PM|
|---------------------------------------------------------|
|---------------------------------------------------------|
|---------9-9------------------------9-9-9----------------|
|-7-7-7-7-9-9-5-5-5-5-9-9------7-7-7-9-9-9-5-5-5-9-9-9----|x5 Last time palm mute
|-7-7-7-7-7-7-5-5-5-5-9-9------7-7-7-7-7-7-5-5-5-9-9-9----|
|-5-5-5-5-----3-3-3-3-7-7------5-5-5-------3-3-3-7-7-7----|


  Gtrs I, II
  PM|   PM|   PM|   PM|
|----------------------------|
|----------------------------|
|-------------7-7-7-9-9-9----|
|-7-7-7-9-9-9-7-7-7-9-9-9----|x3
|-7-7-7-9-9-9-5-5-5-7-7-7----|
|-5-5-5-7-7-7----------------|


  Gtrs I, II
|----------------------------------------------------|
|----------------------------------------------------|
|---------9-9-7-7-7-7-------------9-9-7-7-7-7--------|
|-7-7-7-7-9-9-7-7-7-7-9-9-7-7-7-7-9-9-7-7-7-7-4-4----|x2
|-7-7-7-7-7-7-5-5-5-5-9-9-7-7-7-7-7-7-5-5-5-5-4-4----|
|-5-5-5-5-------------7-7-5-5-5-5-------------2-2----|


  Gtr I
|--------------------------------|
|--------------------------------|
|-------------------------7-7----|
|-------------9-7---------7-7----|x2
|-----7-5-7-7---------5---5-5----|
|-5-5-------------3-3---3--------|


  Gtr II
  PM--------------------|
|--------------------------------|
|--------------------------------|
|--------------------------------|
|-7-7-7-7-9-9-9-9-5-5-5-5-7-7----|x2
|-7-7-7-7-9-9-9-9-5-5-5-5-7-7----|
|-5-5-5-5-7-7-7-7-3-3-3-3-5-5----|


  Gtrs I, II
  PM|   PM|   PM|   PM|
|----------------------------|
|----------------------------|
|-------------7-7-7-9-9-9----|
|-7-7-7-9-9-9-7-7-7-9-9-9----|x3
|-7-7-7-9-9-9-5-5-5-7-7-7----|
|-5-5-5-7-7-7----------------|


  Gtrs I, II
|----------------------------------------------------|
|----------------------------------------------------|
|---------9-9-7-7-7-7-------------9-9-7-7-7-7--------|
|-7-7-7-7-9-9-7-7-7-7-9-9-7-7-7-7-9-9-7-7-7-7-4-4----|x2
|-7-7-7-7-7-7-5-5-5-5-9-9-7-7-7-7-7-7-5-5-5-5-4-4----|
|-5-5-5-5-------------7-7-5-5-5-5-------------2-2----|


  Gtr I
|------------------------------------|
|------------------------------------|
|-----------------7-7-4-4-4-4-6-6----|
|-4-4-5-4-4-4-4-4-7-7-4-4-4-4-6-6----|x6 Only do the slide on the first time
|-4-4S5S4-4-4-4-4-5-5-2-2-2-2-4-4----|
|-2-2-3-2-2-2-2-2--------------------|


  Gtr II
|-2-4-5---4-5-0-4-5-7-5-4-0----|
|-------3----------------------|
|------------------------------|
|------------------------------|x3 Come in on second time
|------------------------------|
|------------------------------|


  Gtrs I, II
|------------------------------------|
|------------------------------------|
|-------------------------7-7-7-7----|
|-4-4-4-4-9-9-9-9-5-5-5-5-7-7-7-7----|x5
|-4-4-4-4-9-9-9-9-5-5-5-5-5-5-5-5----|
|-2-2-2-2-7-7-7-7-3-3-3-3------------|


  Gtrs I, II
|----------------------------------------------------|
|----------------------------------------------------|
|---------9-9-7-7-7-7-------------9-9-7-7-7-7--------|x3
|-7-7-7-7-9-9-7-7-7-7-9-9-7-7-7-7-9-9-7-7-7-7-4-4----|
|-7-7-7-7-7-7-5-5-5-5-9-9-7-7-7-7-7-7-5-5-5-5-4-4----|
|-5-5-5-5-------------7-7-5-5-5-5-------------2-2----|



***************************************************************************************
***************************************************************************************
            
Hard to play? Try these video lessons and learn fast. | Correct




comments powered by Disqus
↑ Back to top | Tablatures and chords are parodies/interpretations of the original songs. You may use it for private study, scholarship, research or language learning purposes only