>
 >
Attention Def - Worst Things Worst

Attention Def - Worst Things Worst Guitar Tabs

Unsigned - Attention Def - Worst Things Worst chords, tabs, tablatures, lyrics

Guitar lessons | Add/correct | Request | Top 50 tabs Artists:  A B C D E F G H I J K L M N O P Q R S T U V W X Y Z 0-9

Attention Def - Worst Things Worst Guitar Tabs – Unsigned

CD, Sheet music, Poster

Do you like Attention Def - Worst Things Worst? Share with your friends now
Tabs
Standard Tuning


I Never realized how complicated this song really is until i Tabbed it
But here it is. Just listen to the song to figure out strumming patterns.
Ian.


Intro Riff (Guitar 1)
|------------------------------------------
|------------------------------------------
|------------------------------------------
|----4--5--4--5--4/5/4---4--5--4--5--4/5/4-
|--55-55-55-55-55--------------------------
|----------------------55-55-55-55-55------
    
|------------------------------------------
|------------------------------------------
|------------------------------------------
|----4--5--4--5--40---4--5--44455540-------  Whole Riff Palm Muted X2
|------------------------------------------
|--33-33-33-33-33---55-55-55---------------

Verse 1 
|------------------------------------------  
|------------------------------------------
|--777-7-7---------------------------------
|--777-7-7-44455540-777-7-7-44455540-------
|--555-5-5----------777-7-7----------------
|-------------------555-5-5----------------
                  
|------------------------------------------
|------------------------------------------
|-----------------------------9------------
|--444-4-4-44455540-555-444-7-9------------
|--444-4-4----------555-444-7-7------------     X2 (2nd Guitar does the same without the picking)
|--222-2-2----------333-222-5--------------

Chorus (Guitar 1&2)
|-------------------------------------------
|-------------------------------------------
|--7----------------------------------------
|--7-(x10?)7-------4-----2-4-5-55-44-777-5-9
|--5-------7-(x10?)4(x8?)2-4-5-55-44-777-5-9
|----------5-------2-----0-2-3-33-22-555-3-7

Verse 2
|------------------------------------------  
|------------------------------------------
|--777-7-7---------------------------------
|--777-7-7-44455540-777-7-7-44455540-------
|--555-5-5----------777-7-7----------------
|-------------------555-5-5----------------
                  
|------------------------------------------
|------------------------------------------
|-----------------------------9------------
|--444-4-4-44455540-555-444-7-9------------
|--444-4-4----------555-444-7-7------------     
|--222-2-2----------333-222-5--------------

|------------------------------------------
|------------------------------------------
|------------------------------------------
|----------44455544--------44455544--------
|--55555555--------------------------------
|------------------55555555----------------

|------------------------------------------
|------------------------------------------
|------------------------------9-----------  (Guitar 2 does the same as it did in Verse 1)
|----------44455544------444-7-9-----------
|------------------------444-7-7-----------
|--22222222--------33333-222-5-------------

Bridge (Guitar 1)
|------------------------------------------
|------------------------------------------
|--777-6-999-7-111111-9--12121212121212----
|--xxx-x-xxx-x-x-x-x--x--x-x-x-x-x-x-x-----
|--555-4-777-5-9-9-9--7--10101010101010----
|------------------------------------------

|------------------------------------------
|------------------------------------------
|--111111-999x-777-------------------------
|--x-x-x--xxxx-xxx-------------------------  
|--9-9-9--777x-555-------------------------
|------------------------------------------

|------------------------------------------
|------------------------------------------
|--777-6-999-7-111111-9--12121212121212----
|--xxx-x-xxx-x-x-x-x--x--x-x-x-x-x-x-x-----
|--555-4-777-5-9-9-9--7--10101010101010----
|------------------------------------------

|------------------------------------------
|------------------------------------------
|------------------------------------------
|--22222222-3-55555555--------------------- X3
|--22222222-3-55555555---------------------
|--00000000-2-33333333---------------------


|------------------------------------------
|------------------------------------------
|--------------------------9---------------
|--22222222-4-555-44-777-5-9---------------
|--22222222-4-555-44-777-5-7---------------
|--00000000-2-333-22-555-3-----------------
  |___PM__|


Bridge (Guitar 2)
|--------------------------------------------
|--------------------------------------------
|--77777777-6-99999999-7-111111111-9-12------
|--xxxxxxxx-x-xxxxxxxx-x-x-x-x-x---x-x-(x10?) X2
|--55555555-4-77777777-5-99999999--7-10------
|--------------------------------------------

|------------------------------------------
|------------------------------------------
|------------------------------------------
|--22222222-3-55555555--------------------- X3
|--22222222-3-55555555---------------------
|--00000000-2-33333333---------------------

|------------------------------------------
|------------------------------------------
|--------------------------9---------------
|--22222222-4-555-44-777-5-9---------------
|--22222222-4-555-44-777-5-7---------------
|--00000000-2-333-22-555-3-----------------
  |___PM__|

Bridge (Guitar 3)
|------------------------------------------
|------------------------------------------
|-------7-----7----------------------------
|----7-----7-----77------------------------
|--55-55-55-55-55-------------------------- X4 Palm Muted
|------------------------------------------
 
Song Structure
Intro Riff
Verse 1
Chorus
Verse 2
Chorus
Bridge
Chorus





Comments


Popular Unsigned tabs & chords
Achik Named Bob - Case Closed Bass Tabs
Candid - Mellow Bass Tabs
Inside Of Gray Bass Tabs
Less Than Nothing - Show And Tell Bass Tabs
Pop Up - Abuse Bass Tabs
The Accidents - Idiot Bass Tabs
Unarmed - Army Of More In Progress Bass Tabs
Xcelerate-Lunitic Bass Tabs
Branded-Waiting Tabs
Kill The Wise - Another Smile Falls Tabs


Song lyrics



↑ Back to top | Tablatures and chords are parodies/interpretations of the original songs. You may use it for private study, scholarship, research or language learning purposes only
© 2014 AZChords.com Contact us | Privacy policy | DMCA | Add/correct tabs | Request tabs | Top 50 tabs