» » »

Unsigned, Attention Def - The Poser Anthem Tabs (ver.1)

Artists:  A B C D E F G H I J K L M N O P Q R S T U V W X Y Z # 

Attention Def - The Poser Anthem Tabs (ver.1)

Unsigned Tabs
 Rating:
4/5 (4 votes)
Attention Def - The Poser Anthem lessons Tabs too difficult? Try these video lessons and learn fast
1
                Standard Tuning


Intro (Guitar 1)
|-----------------------------
|-----------------------------
|--5---5---5---5---5----------
|--5---5---5---5---5---------- Let Ring
|--3---3---3---3---3----------
|-----------------------------

|---------------------------------
|---------------------------------
|--555555-------------------------
|--555555-555555-777777-333-555--- X2
|--333333-555555-777777-333-555---
|---------333333-555555-111-333---


Intro A (Guitar 2)
|-----------------------------
|-----------------------------
|--5---5---5--5-5-5-5--5------
|--5---5---5---5-5-5-5-5------
|--3---3---3-----------3------
|-----------------------------
Intro B
|-----------------------------
|-----------------------------
|-----------------------------
|------5-3-2-0--0-5-3-2-------
|--3-3------------------3-----
|-----------------------------

|-----------------------------
|-----------------------------
|-----------------------------
|------5-3-2-0-2-3-5----------
|--3-3------------------------
|-----------------------------

Verse (Guitar 1)
|-----------------------------
|-----------------------------
|--55-------55----------------
|--55-33-55-55---33-55-------- x4 Palm Muted
|--33-33-55-33---33-55--------
|-----11-33------11-33--------

|------------------------------
|------------------------------
|-----5------5----3-3----5-----  
|-------5----------------------
|--33-----33---11-----33------- < Palm Mute this string
|------------------------------

Verse (Guitar 2)
|-----------------------------
|-----------------------------
|--55-------55----------------
|--55-33-55-55---33-55-------- x7 Palm Muted
|--33-33-55-33---33-55--------
|-----11-33------11-33--------

Prechorus/Outchorus (Guitar 1 & 2)
|-----------------------------
|-----------------------------
|-----------------------------
|--3333-5555------------------
|--3333-5555------------------
|--1111-3333------------------

Chorus (Both Guitars)
|-----------------------------
|-----------------------------
|--55-------------------------
|--55-55-33-55---------------- x4
|--33-55-33-55----------------
|-----33-11-33----------------


Bridge
|-----------------------------
|-----------------------------
|-----------------------------
|------5-3-2-0--0-5-3-2-------
|--3-3------------------3-----
|-----------------------------

|-----------------------------
|-----------------------------
|-----------------------------
|------5-3-2-0-2/3/2/0--------
|--3-3------------------------
|-----------------------------

|-----------------------------
|-----------------------------
|-----------------------------
|------5-3-2-0----------------
|--3-3---------3--------------
|-----------------------------

|-----------------------------
|-----------------------------
|--5--------------------------
|--5-5-3-5--------------------
|--3-5-3-5-------------------- x8
|----3-1-3--------------------

End Chorus
|-----------------------------
|-----------------------------
|--5555-----------------------
|--5555-5555-3333-------------
|--3333-5555-3333------------- x 4
|-------3333-1111-------------

Song Structure
Intro A
Intro B
Verse
Prechorus
Chorus
Outchorus
Intro B
Verse
Prechorus
Outchorus
Bridge
End Chorus
            
Submit corrections

comments powered by Disqus
↑ Back to top | Unsigned Tabs for Attention Def - The Poser Anthem. Lyrics for acoustic guitar and electric guitar. 1 Tablatures and chords are parodies/interpretations of the original songs. You may use it for private study, scholarship, research or language learning purposes only