>
 >
Attention Def - Don Judge Me

Attention Def - Don Judge Me Guitar Tabs

Unsigned - Attention Def - Don	 Judge Me chords, tabs, tablatures, lyrics

Guitar lessons | Add/correct | Request | Top 50 tabs Artists:  A B C D E F G H I J K L M N O P Q R S T U V W X Y Z 0-9

Attention Def - Don Judge Me Guitar Tabs – Unsigned

CD, Sheet music, Poster

Do you like Attention Def - Don Judge Me? Share with your friends now
Tabs
Standard Tuning

Intro
|------------------------------------------------------|
|------------------------------------------------------|
|--5555-55-55------------5555-55-55--------------------|
|--5555-55-55-5555-55-77-5555-55-55-3333-3-5-----------|
|--3333-33-33-5555-55-77-3333-33-33-3333-3-5-----------|
|-------------3333-33-55------------1111-1-3-----------|

Riff 1
|------------------------------------------------------|
|------------------------------------------------------|
|-555555555555-----------------------------------------|
|-555555555555-5-3-------------------------------------|
|-333333333333-5-3-------------------------------------|
|--------------3-1-------------------------------------|
|____PM_____|

Riff 2
|------------------------------------------------------|
|------------------------------------------------------|
|-55-- -55----55---------------------------------------|
|-55-55-55-33-55-55-3--3-5-----------------------------|
|-33-55-33-33-33-55-3--3-5-----------------------------|
|----33----11----33-1--1-3-----------------------------|

Chorus
|------------------------------------------------------|
|------------------------------------------------------|
|-5555----9999------------5555-------------------------|
|-55555555999910 10 10 10-55555555-3-3-3-5-------------|
|-3333555577778  8  8  8--33335555-3-3-3-5-------------|
|-----3333--------------------3333-1-1-1-3-------------|


Bridge
|-------------------------------------------------------|
|-------------------------------------------------------|
|-55----------------------------------------------------|
|-55-2/3h0-55-2/3h0-77-2/3h0-33-55----------------------|
|-33-------55-------77-------33-55----------------------|
|----------33-------55-------11-33----------------------|


Song Structure

Intro  (x4)
Riff 1 (x8)
Chorus (x2)
Intro  (x2)
Riff 1 (x2)
Riff 2 (x1)
Chorus (x2)
Bridge (x6)
Chorus (x2)





Comments


Popular Unsigned tabs & chords
Aggresion Stress On Bass Tabs
Crni Leptir - So Far From Here Bass Tabs
Cryin Froot-Juice - Sildenafil Citrate Bass Tabs
Easy Way Out - Revival Bass Tabs
Eternal Chaos - All Alone Bass Tabs
Nuclear Noodle - Wrong Time Bass Tabs
Afterthought - Enough Tabs
Avex-Teevin Tabs
Dekapitron - Shapes Of Pain Tabs
In Question - When You Are Gone Tabs


Song lyrics



↑ Back to top | Tablatures and chords are parodies/interpretations of the original songs. You may use it for private study, scholarship, research or language learning purposes only
© 2014 AZChords.com Contact us | Privacy policy | DMCA | Add/correct tabs | Request tabs | Top 50 tabs