» » »

Attack Of The Repertoire Bass tabs (ver.1)

Artists:  A B C D E F G H I J K L M N O P Q R S T U V W X Y Z # 

Attack Of The Repertoire Bass tabs (ver.1)

Unsigned
Rating:
0/5 (0 votes)

Hard to play? Try these video lessons and learn fast.
                This is a line I use for a song, that me, my brother and my uncle, jam to. It may be easy for some of you, but it sounds great with the guitar and drums.

Intro (1 full measure for each note)
								2x
G------------------------------------------------------------------
D------------------------------------------------------------------
A------0----------3---------------------------5-------------------
E--------------------------------3---------------------------------


1st Verse

								
G----------------------------------------------------------------
D------------------------------------2----0---------------------
A----0----2--3---0---2--3-----5--------------2----------------
E---------------------------------------------------3----3---3--


G------------------------------------
D------------------------------------
A----2---3----5------5-5-----3---2-
E------------------------------------

G----------------------------------------------------------------
D------------------------------------2----0---------------------
A----0----2--3---0---2--3-----5--------------2----------------
E---------------------------------------------------3---3---3---


G------------------------------------
D------------------------------------
A----2-----3-----5------3----2------
E----------------------------------3--

G----------------------------------------------------------------
D------------------------------------2----0---------------------
A----0----2--3---0---2--3-----5--------------2----------------
E---------------------------------------------------3----3---3--


G------------------------------------
D------------------------------------
A----2---3----5------5-5-----3---2-
E------------------------------------

G----------------------------------------------------------------
D------------------------------------2----0---------------------
A----0----2--3---0---2--3-----5--------------2----------------
E---------------------------------------------------3---3---3---


G------------------------------------
D------------------------------------
A----2-----3-----5------3----2------
E----------------------------------3--

Chorus

G----------------------------------------------------------------
D----------------------------------------------------------------
A------0----0--------0---------------0-----3----3--------------
E----------------3---------------3-------------------------------

G----------------------------------------------------------------
D----------------------------------------------------------------
A------0----0--------0-------------0---------------------------
E----------------3------------------------3-----1-----3---------

G----------------------------------------------------------------
D----------------------------------------------------------------
A------0----0--------0---------------0-----3----3--------------
E----------------3---------------3-------------------------------

G----------------------------------------------------------------
D----------------------------------------------------------------
A------0----0--------0-------------0---------------------------
E----------------3------------------------3-----1-----3---------

2nd Verse is same as first;
Then it goes to the Chorus again;
After the Chorus is the Bridge

Bridge
							
G----------------------------------------------------------------
D----------------------------------------------------------------
A----------------------------------------------------------------
E-----5--5---5~----3--3--3~----2--2--2~----1-1--111--------

G----------------------------------------------------------------
D----------------------------------------------------------------
A----------------------------------------------------------------
E-----5--5---5~----3--3--3~----2--2--2~----1-1--111--------

G------------------------------------
D------------------------------------
A------------------------------------
E----11111111---------------------

Then play the Verse again, then it goes to the Outro:

Outro

G------------------------------------
D------------------------------------
A------0-------0--------0-----------
E----------3--------3----------------

This was the first song I ever wrote, I hope you will enjoy it!
            
Hard to play? Try these video lessons and learn fast. | Correct




comments powered by Disqus
↑ Back to top | Tablatures and chords are parodies/interpretations of the original songs. You may use it for private study, scholarship, research or language learning purposes only