>
 >
Argenious-The Unnamed

Argenious-The Unnamed Guitar Tabs

Unsigned - Argenious-The Unnamed chords, tabs, tablatures, lyrics

Guitar lessons | Add/correct | Request | Top 50 tabs Artists:  A B C D E F G H I J K L M N O P Q R S T U V W X Y Z 0-9

Argenious-The Unnamed Guitar Tabs – Unsigned

CD, Sheet music, Poster

Do you like Argenious-The Unnamed? Share with your friends now
Tabs

This is a song i started to write on 9-19-03 after listening to alot of Shadows Fall and Killswitch Engage...i personally think its sounds like a metalcore song and might be catchy...you deicide, id like to see some comments on it once you try it out. Thanx
ALSO!: this is just the intro set right here...havent finished the rest. song structure at the end.

Riff 1
D|---------------------------
A|---------------------------
F|---------------------------  (x3 then do it with heavy distortion 3 times,then play again clean)
C|-----2-----3------1------0-
G|---2-----3------1------0---
C|-2-----3------1------0-----

Riff 2
D|-------------------------------
A|-------------------------------
F|------------------------------- (heavy dist, 4 times, then play riff one again)
C|-2-2-2--3-3-3--1-1-1--0-0-0----
G|-2-2-2--3-3-3--1-1-1--0-0-0----
C|-2-2-2--3-3-3--1-1-1--0-0-0----

Riff 3
D|------------------------
A|------------------------
F|------------------------(palm mute the whole thing 2 times)
C|------------------------
G|------------------------
C|-0-1-0-5-3--0-3-0-7-5---

Riff 4
D|-------------------------
A|-------------------------
F|------------------------- (3 times)
C|-------------------------
G|-0-1-0-5-3--0-3-0-7-5----
C|-0-1-0-5-3--0-3-0-7-5----

Song Structure
RIFF 1 X3
RIFF 2 X4
RIFF 1 X3
RIFF 3 X2
RIFF 4 X3
RIFF 3 X2





Comments


Popular Unsigned tabs & chords
Aimless- Why Cant You See Bass Tabs
Hijacked Mojo - Go Home Ahole Bass Tabs
Lifter - Gush Bass Tabs
Sixdaystoyesterday - Thermalvalentine Bass Tabs
The - Dr Pepper Bass Tabs
The Accidents - Idiot Bass Tabs
Virgin Counterpart - Crazy Plane Bass Tabs
1984 - No Future Tabs
Grimreaper Warlords- Kill All Tabs
Inconcievable - Out Of Fashion Tabs


Song lyrics



↑ Back to top | Tablatures and chords are parodies/interpretations of the original songs. You may use it for private study, scholarship, research or language learning purposes only
© 2014 AZChords.com Contact us | Privacy policy | DMCA | Add/correct tabs | Request tabs | Top 50 tabs