» » »

A Really Sweet Acoustic Song I Wrote Tabs (ver.1)

Artists:  A B C D E F G H I J K L M N O P Q R S T U V W X Y Z # 

A Really Sweet Acoustic Song I Wrote Tabs (ver.1)

Unsigned
Rating:
0/5 (0 votes)

Hard to play? Try these video lessons and learn fast.
                This is an acoustic song I wrote :P

Intro/Verses - play it twice for into anf about 6 times for verses

E------3--------------3------------------3----------------2------------------       B--------3---------------3------------------3----------------3-------------------
G----0------------0--------0---------0-----------------2--------2--------------- 
D---------------------------------------------------0--------------------------
A--2-----------3----------------------------------------------------------------
E---------------------------------3---------------------------------------------

Bridge

E----------0--------------3------------
B--------3--------------3--------------
G------0--------------0----------------
D--------------------------------------
A---3----------------------------------
E------------------3-------------------

Chorus

Em7/Cadd9/G/D

Em7 : (022033)
Cadd9 : (032033)

In the end just play the intro riff again and end with Cadd9 (strummed)


ciao ppl
            
Hard to play? Try these video lessons and learn fast. | Correct




comments powered by Disqus
↑ Back to top | Tablatures and chords are parodies/interpretations of the original songs. You may use it for private study, scholarship, research or language learning purposes only