» » »

Antix Zero - Re:Joice Tabs (ver.1)

Artists:  A B C D E F G H I J K L M N O P Q R S T U V W X Y Z # 

Antix Zero - Re:Joice Tabs (ver.1)

Unsigned
Rating:
0/5 (0 votes)
Tabs too difficult? Try these video lessons and learn fast.
                Antix Zero
/”RE:joice”/
Hatred
Tuning: Drop D (D A D G B E)

pm = palm mute
 = tremelo pick

Intro:(super-chorus)
e------------------------------------------------------------------
b------------------------------------------------------------------
g------------------------------------------------------------------
d-7-10-5---5-4-5-4-5-4-5-7-10-5---5-2-2-2-3-3-3-2-2-2-3-3-3-5-3-5-5
a-5-8--3---3-2-3-2-3-2-3-5-8--3---3-2-2-2-3-3-3-2-2-2-3-3-3-5-3-5-5
d-0-0--0-0-0-0-0-0-0-0-0-0-0--0-0-0-2-2-2-3-3-3-2-2-2-3-3-3-5-3-5-5

e--------------------------------------------------------
b--------------------------------------------------------
g--------------------------------------------------------
d-7-10-5---5-4-5-4-5-4-5-7-10-5---5-2-2-2-3-2-2-2-3-2-2-3
a-5-8--3---3-2-3-2-3-2-3-5-8--3---3-2-2-2-3-2-2-2-3-2-2-3
d-0-0--0-0-0-0-0-0-0-0-0-0-0--0-0-0-2-2-2-3-2-2-2-3-2-2-3
                                    heavy dist.
Chorus
e--------------------------------
b--------------------------------
g--------------------------------
d-5-8-3-3-3-2-2-2-3-2-2-2-3-2-2-3 4x
a-5-8-3-3-3-2-2-2-3-2-2-2-3-2-2-3
d-5-8-3-3-3-2-2-2-3-2-2-2-3-2-2-3

		
Verse 1	     (Heavy dist. & Super-Chorus)
e----------------------------------------------------
b----------------------------------------------------
g----------------------------------------------------
d-5--3-5--3-5-2-3-3--2-2-3---5--3-5--3-5-2-3-3--2-2-3
a-5--3-5--3-5-2-3-3--2-2-3---5--3-5--3-5-2-3-3--2-2-3
d-5--3-5--3-5-2-3-3--2-2-3---5--3-5--3-5-2-3-3--2-2-3

	
Verse 2   (Just chorus 1st time distortion and chorus 2nd)
e---------------------------------------
b---------------------------------------
g---------------------------------------
d-4-4-44-4--5-5-55-5--9-9-99-9--5-5-55-5
a-5-5-55-5--5-5-55-5--9-9-99-9--5-5-55-5
d-----------5-5-55-5--9-9-99-9--5-5-55-5

intro-1
chorus-4
verse1-4
chorus-4
verse2-2
chorus-4
            
Tabs too difficult? Try these video lessons and learn fast.


comments powered by Disqus
↑ Back to top | Tablatures and chords are parodies/interpretations of the original songs. You may use it for private study, scholarship, research or language learning purposes only