» » »

Unsigned, Anti Felon - Always Watching Bass tabs (ver.1)

Artists:  A B C D E F G H I J K L M N O P Q R S T U V W X Y Z # 

Anti Felon - Always Watching Bass tabs (ver.1)

Unsigned Tabs
 Rating:
4/5 (4 votes)
Anti Felon - Always Watching lessons Tabs too difficult? Try these video lessons and learn fast
                Off of Anti Felon
Dakota, B, and Justin
Copywright 2003 by Anti Felon

Intro (0:04)
G  :----------------|----------------|
D  :----------------|----------------|
A  :2-2-2-2-2-2-2-2-|----------------| x2
E  :----------------|0-0-0-0-0-0-0-0-|

Pre-Verse (0:09)
G  :----------------|----------------|
D  :----------------|----------------|
A  :2-2-2-2---------|----------------| x2
E  :--------0-0-0-0-|4-4-4-4-2-2-2-2-|

Verse (0:14)
G  :----------------|----------------|
D  :----------------|----------------|
A  :2-2-2-2-2-2-2-2-|----------------| x4
E  :----------------|4-4-4-2---2-2-2-|

Intro x4

Verse x4

Chorus (0:43)
G  :----------------|----------------|----------------|----------------|
D  :----------------|--------2-2-2-2-|----------------|----------------|
A  :2-2-2-2-4-4-4-4-|----------------|2-2-2-2-4-4-4-4-|----------------| x2
E  :----------------|4-4-4-4---------|----------------|4-4-4-4-4-4-4-4-|

Intro x4

Pre-Verse x2

Verse x4

Chorus x2

Solo (1:26)
G  :----------------|----------------|----------------|----------------|
D  :----------------|----------------|----------------|----------------|
A  :------9-----7-6-|------7-----7-6-|------9-----7-6-|------7-----7-6-| x3
E  :7-9-7-----7-----|0-7-0-----7-----|7-9-7-----7-----|0-7-0-----7-----|

G  :----------------|----------------|----------------|--------9-9-9-9-|
D  :----------------|----------------|----------------|----------------|
A  :------9-----7-6-|------7-----7-6-|------9-----7-6-|7-7-7-7---------|
E  :7-9-7-----7-----|0-7-0-----7-----|7-9-7-----7-----|----------------|

Outro (1:45)
G  :----------------|----------------|----------------|----------------|
D  :----------------|--------2-2-2-2-|----------------|----------------|
A  :2-2-2-2-4-4-4-4-|----------------|2-2-2-2-4-4-4-4-|----------------|
E  :----------------|4-4-4-4---------|----------------|4---------------|

G  :----------------|----------------|----------------|----------------|
D  :----------------|--------2-2-2-2-|----------------|----------------|
A  :2-2-2-2-4-4-4-4-|----------------|2-2-2-2-4-4-4-4-|----------------|
E  :----------------|4-4-4-4---------|----------------|4-4-4-4-4-4-4-4-|

G  :-----------------------|----------------|
D  :-----------------------|----------------|
A  :-----------------------|2---------------|
E  :4/5/6/7/8/10\8\7\6\5\4-|----------------|
            
Submit corrections

comments powered by Disqus
↑ Back to top | Unsigned Bass for Anti Felon - Always Watching. Lyrics for acoustic guitar and electric guitar. Tablatures and chords are parodies/interpretations of the original songs. You may use it for private study, scholarship, research or language learning purposes only