» » »

Anti Bioxic Tabs (ver.1)

Artists:  A B C D E F G H I J K L M N O P Q R S T U V W X Y Z # 

Anti Bioxic Tabs (ver.1)

Unsigned
Rating:
0/5 (0 votes)

Tabs too difficult? Try these video lessons and learn fast.
                Song Name- ?
Tunning- Half Step Down
(1)
------------------------------------------------
------------------------------------------------
------------------------------------------------
------------------------------------------------
-0-1-0-3-0-3-0 1-0-3-0-3------------------------
------------------------------------------------
                                               
(2)
------------------------------------------------
------------------------------------------------
------------------------------------------------
------------------------------------------------
-0-1-0-3-0-3-0-1-0-3-0-3------------------------
-0-1-0-3-0-3-0-1-0-3-0-3------------------------

(3)
-----------------------------------------------
-----------------------------------------------
-----------------------------------------------
-0-1-0-3-0-3-0-1-0-3-0-3-----------------------
-0-1-0-3-0-3-0-1-0-3-0-3-----------------------
-----------------------------------------------
                                              

ORDER
(1) x4 (Let LAst Note Ring Out)
(2) x2
(1) x2
(2) x2
(3) x1
(2) x2
(1) x3
            
Tabs too difficult? Try these video lessons and learn fast.


comments powered by Disqus
↑ Back to top | Tablatures and chords are parodies/interpretations of the original songs. You may use it for private study, scholarship, research or language learning purposes only