>
 >
Another Cool Song I Made

Another Cool Song I Made Guitar Tabs

Unsigned - Another Cool Song I Made chords, tabs, tablatures, lyrics

Guitar lessons | Add/correct | Request | Top 50 tabs Artists:  A B C D E F G H I J K L M N O P Q R S T U V W X Y Z 0-9

Another Cool Song I Made Guitar Tabs – Unsigned

CD, Sheet music, Poster

Do you like Another Cool Song I Made? Share with your friends now
Tabs
tuning:Drop D

Intro 4x clean
                             1st,3rd  2nd,4th
|---------------------------|-------|-----|
|---------------------------|-------|-----|
|---------5-5h7p5-----------|-------|-----|
|-----7-8---------8~------8-|-10p8~-|-10~-|
|---5-------------------6---|-8~----|-8~--|
|-5-------------------6-----|-8~----|-8~--|

Riff A 4x
                                        1st,3rd  2nd,4th
|---------------------------------------|-------|-----|
|---------------------------------------|-------|-----|
|-------------10-10h12p10---------------|-------|-----|
|-------12-13-------------13~--------13-|-10p8~-|-10~-|
|----10---------------------------11----|-8~----|-8~--|
|-10---------------------------11-------|-8~----|-8~--|

Riff B  3x                                                    slide slowly
                                                              |
|-----------------------------------------------------------------|
|-----------------------------------------------------------------|
|---------------10-10h12p10-------13-13/15~--13-12-10h12p10-------|
|-------12-13~--------------13~-----------------------------13\12-|
|----10-----------------------------------------------------------|
|-10--------------------------------------------------------------|
Fill riff 1 1x
|-----------------------------------------------------------------------|
|-----------------------------------------------------------------------|
|---------------10-10h12p10-------13-13/15~--13-12-10h12p10-------------|
|-------12-13~--------------13~-----------------------------13\12-10----|
|----10--------------------------------------------------------------13-|
|-10--------------------------------------------------------------------|

Riff C 4x

|-----------------------------------------------|
|-13~--13-----------------11~--11---------------|
|-12~-----12-------12-----10~-----10-------10---|
|-12~--------12-------12--8~---------8---8------|
|-10~-----------10--------8~-----------8--------|
|-10~---------------------8~--------------------|


Riff D 4x

|-----------------------------|
|-----------------------------|
|-----------------------------|
|-----7-8--8/10~---10-\-8~----|
|---5--------------10-\-6~----|
|-5----------------10-\-6~----|
 
Riff E 4x
                                    1st       2nd      3rd      4th
|--------------------------------|--------|--------|--------|-------|
|--------------------------------|--------|--------|--------|-------|
|------------------8-8h10p8\7~---|--------|--------|--------|-------|
|-----7-8--8/10~-----------------|-10-7---|-8-7-10-|-10-8-7-|-8-7---|
|---5----------------------------|------8-|--------|--------|-----8-|
|-5------------------------------|--------|--------|--------|-------|

Riff F 2x

|-------------------------------------------------------
|-------------------------------------------------------
|------0-------0-----------------0-----------0---------0
|----8---8---7-----5-5h8p5-5---5---5-------8---8----10--
|-10-------8-----6-----------6-------6--10-------12-----
|-------------------------------------------------------
riff f continued   1st     2nd (start playing in distortion)
|--------------|---------|----------|
|--------------|---------|----------|
|--------------|---0-----|----------|
|---5-5h8p5-5--|-5---5---|/7-7-7-77-|
|-6-----------6|-------6-|/8-8-8-88-|
|--------------|---------|----------|

Distortion Riff 1 2x

|-----------------------------------------------------
|-----------------------------------------------------
|--------------------7-777-777-777-77-----------------
|-5-55-5-55877-777-5-5-555-555-555-55-8-888-888-888-88
|-5-55-5-55555-555-5-5-555-555-555-55-6-666-666-666-66
|-5-55-5-55555-555-5-5-555-555-555-55-6-666-666-666-66
D.riff 1 continued
   1st                     2nd
|-------------------|------------------------------|
|-------------------|------------------------------|
|-------------------|------------------------------|
|-1088-8-888-888-88-|-10-101010-101010-101010-1010-|
|-8-88-8-888-888-88-|-8--8-8-8--8-8-8--8-8-8--8-8--|
|-8-88-8-888-888-88-|-8--8-8-8--8-8-8--8-8-8--8-8--|

Distortion Riff 2 

|----------------------------------------------------------
|----------------------------------------------------------
|--------------------------------------------131212-12-1212
|-10-101010-101012-121212-121313-131313-1010-101010-10-1010
|-10-101010-101010-101010-101010-101010-1010-101010-10-1010
|-10-101010-101010-101010-101010-101010-1010-101010-10-1010
   (ten,not one and zero)
D.riff 2 continued
|-----------------------------------------------------------|
|-----------------------------------------------------------|
|-10-101010-101010-8-8-8--8-8-12-121212-121212-121212121312-|
|-8--8-8-8--8-8-8--6-6-6--6-6-10-101010-101010-101010101010-|
|-8--8-8-8--8-8-8--6-6-6--6-6-10-101010-101010-101010101010-|
|-8--8-8-8--8-8-8--6-6-6--6-6-10-101010-101010-101010101010-|

Distortion Riff 3

|-
|-
|-12-121212-121212-121212-1212-12-121212-121212-121212-1212
|-13-131313-131313-131313-1313-12-121212-121212-121212-1212
|-10-101010-101010-101010-1010-10-101010-101010-101010-1010
|-10-101010-101010-101010-1010-10-101010-101010-101010-1010
continurd D.riff 3
|-
|-
|-
|-
|-
|-

Intro 4x
Riff A 4x

After 4th time on riff a,play this 1x
|---------|
|---------|
|---------|
|-8--7p5~-|
|-6--5~---|
|-6--5~---|
Key
/:slide up
\:slide down
p:pull-off
h:hammer-on
~:let note ring





Comments


Popular Unsigned tabs & chords
Bass Riffs By Kyle Woods Bass Tabs
Chain - Tired Bass Tabs
Lithium - Lazy Boy Bass Tabs
Nuclear Noodle - Wrong Time Bass Tabs
Paul Pichon - A Simple Game For One Bass Tabs
Dekapitron - Overflow Tabs
Dismembered - One Tabs
Easily Amused - Why Tabs
Ekineesha Force - Pay Day Tabs
Kind Of A Relaxing Song I Made Tabs


Song lyrics



↑ Back to top | Tablatures and chords are parodies/interpretations of the original songs. You may use it for private study, scholarship, research or language learning purposes only
© 2014 AZChords.com Contact us | Privacy policy | DMCA | Add/correct tabs | Request tabs | Top 50 tabs