» » »

Animosity - Erics Riffs Tabs (ver.1)

Artists:  A B C D E F G H I J K L M N O P Q R S T U V W X Y Z # 

Animosity - Erics Riffs Tabs (ver.1)

Unsigned
Rating:
0/5 (0 votes)

Hard to play? Try these video lessons and learn fast.
                e|---
b|---
g|-------0-----0----3----0
d|-----7-----5----5-----5
a|---5-----3-----0-----0
E|---
                    ^
        riff one what not

e|-----------------------------------------
b|-----------------------------------------
g|--------5--------------------------------
d|---3-3---3-------3---------5-----------
a|-------------5-5----5--3-3---3----3-5
E|--------------------------------5-----

	^
      blahblahRIFFTWOblah


e|-------------10-9--10-9h10p9--------9h10p9-----12--10p9
b|---10-/-12-----------------------10--------------10-----------
g|---------------------------------------9--------------------------
d|---
a|---
E|---


	^
       "solo" one


TIS ALL FOR NOW, MORE MIGHT FOLLOW SOON
THIS
IS
FOR
ADDED
LENGTH
TAHDAH!
            
Hard to play? Try these video lessons and learn fast. | Correct




comments powered by Disqus
↑ Back to top | Tablatures and chords are parodies/interpretations of the original songs. You may use it for private study, scholarship, research or language learning purposes only