» » »

Anal Cornslaw- Titys And A Bong Tabs (ver.1)

Artists:  A B C D E F G H I J K L M N O P Q R S T U V W X Y Z # 

Anal Cornslaw- Titys And A Bong Tabs (ver.1)

Unsigned
Rating:
0/5 (0 votes)

Hard to play? Try these video lessons and learn fast.
                intro 
e|---------------------------------------------------------------------------|
B|---------------------------------------------------------------------------|
G|----------------------4-5--------------------------------------------------|
D|----2---2--4-5-2--4-5-----7-5-7-4-5-4/5\2----------------------------------|
A|--2---2-----------------------------------2--------------------------------|
E|--------------------------------------------3-0----------------------------|

verse one repeat twice
e|---------------------------------------------------------------------------|
B|--------3------3-----------------------------------------------------------|
G|-3------2-x6---0-----------------------------------------------------------|
D|-2-x5---2------2-x5---2----------------------------------------------------|
A|-2-------------3------2-x 4------------------------------------------------|
E|---------------------------------------------------------------------------|



verse two  repeat twice
e|---------------------------------------------------------------------------|
B|---------------------------------------------------------------------------|
G|---------------------------------------------------------------------------|
D|---0---0--0---0---0---0---0---0---0---0---0---0---0---0---0----------------|
A|--0---0--0---0---0---0---0---0---0---0---0---0---0---0---0-----------------|
E|-0---0--0---0---2---2---2---2---3---3---3---3---2---2---2------------------|
            
Hard to play? Try these video lessons and learn fast. | Correct




comments powered by Disqus
↑ Back to top | Tablatures and chords are parodies/interpretations of the original songs. You may use it for private study, scholarship, research or language learning purposes only