>
 >
Anal Cornslaw-Kitty Poo Sticks

Anal Cornslaw-Kitty Poo Sticks Guitar Tabs

Unsigned - Anal Cornslaw-Kitty Poo Sticks chords, tabs, tablatures, lyrics

Guitar lessons | Add/correct | Request | Top 50 tabs Artists:  A B C D E F G H I J K L M N O P Q R S T U V W X Y Z 0-9

Anal Cornslaw-Kitty Poo Sticks Guitar Tabs – Unsigned

CD, Sheet music, Poster

Do you like Anal Cornslaw-Kitty Poo Sticks? Share with your friends now
Tabs
e|------------------------------------------
b|------------------------------------------
g|------------------------------------------
d|-9--9-12--12-5--5--6--8--8--7--7--------
a|-9--9-12-12--5--5--6--8--8--7--7--------
D|-7--7-10--10--0--3--0--6--0--5--0--------

e|------------------------------------------
b|------------------------------------------
g|-------------------5-5-5-5-0-------------
d|-2-2-2-2--7-7-7-7--5-5-5-5-0---5-5-5-5--
a|-2-2-2-2--7-7-7-7--3-3-3-3-0---5-5-5-5---
D|-0-0-0-0--5-5-5-5----------0---3-3-3-3---





Comments


Popular Unsigned tabs & chords
Byk9- No Time Bass Tabs
Copper Flame - Giving You Up Bass Tabs
Falling On Friday - 1 Bass Tabs
Untitled - High Five Guy Bass Tabs
3foagcb- Tomorrows Not Another Day Tabs
Afterthought - No Noise Tabs
Ancient Defiance- As "I" Tabs
Ill By Mouth-Judgment Tabs
Insert Name - Deaf Tabs
Last Ones To Heaven - Untitled Tabs


Song lyrics



↑ Back to top | Tablatures and chords are parodies/interpretations of the original songs. You may use it for private study, scholarship, research or language learning purposes only
© 2014 AZChords.com Contact us | Privacy policy | DMCA | Add/correct tabs | Request tabs | Top 50 tabs