» » »

Amoral-2steps Back Tabs (ver.1)

Artists:  A B C D E F G H I J K L M N O P Q R S T U V W X Y Z # 

Amoral-2steps Back Tabs (ver.1)

Unsigned
Rating:
0/5 (0 votes)

Hard to play? Try these video lessons and learn fast.
                amoral-2 steps back
*=palm mute

(intro) both guitars

e:-----------------------
b:-----------------------
g:-----------------------      X4
d:-9999---------------
a:-9999---------------
e:-7777---------------
    *** ~~~~ let last note ring 
  

(chorus)
e:------------------------------------------------------------------------------------------
b:------------------------------------------------------------------------------------------
g:--------------------------7-7-7---------------------------------------------------------      x1
d:-999-9-9-9-5--5-5--7-7-7--7-7-7---999-9-9-9--5-5-5--7-7-7-7-7-7-7-7
a:-999-9-9-9-5--5-5--5-5-5--7-7-7---999-9-9-9--5-5-5--7-7-7-7-7-7-7-7
e:-777-7-7-7-3--3-3-----------5-5-5---777-7-7-7--3-3-3--5-5-5-5-5-5-5-5
    ***                                        ***


e:------------------------------------------------------------------------------------------
b:------------------------------------------------------------------------------------------
g:--------------------------7-7-7-------------------------------------------7-6----------      
d:-999-9-9-9-5--5-5--7-7-7--7-7-7---999-9-9-9--5-5-5--7----7-6-7-9----   x1
a:-999-9-9-9-5--5-5--5-5-5--7-7-7---999-9-9-9--5-5-5--7----5-4-7-9----
e:-777-7-7-7-3--3-3-----------5-5-5---777-7-7-7--3-3-3--5----------5-7----
    ***                                        ***

(verse)
e:------------------------------------------------------------------------------------------
b:------------------------------------------------------------------------------------------
g:-----------------------------------------------77--7--77-7-7--66--6--------------     
d:-99--9--99--9-9-9-55--5--55--5-5-5-77--7--77-7-7--66--6---7-7-7          X2
a:-99--9--99--9-9-9-55--5--55--5-5-5-55--5--55-5-5--44--4---7-7-7
e:-77--7--77--7-7-7-33--3--33--3-3-3-------------------------------5-5-5
    **      **            **      **            **      **  

e:----------------------------------------------------------------------------------------
b:---------------------------------------------------------------------------------------
g:---------------------------------------------3-3-3-3-3-3-3-3
d:-9-9-9-9-9-9-9-9-5-5-5-5-5-5-5-5-3-3-3-3-3-3-3-3-7-7-7-7-7-7-7-7   
a:-9-9-9-9-9-9-9-9-5-5-5-5-5-5-5-5-5-5-5-5-5-5-5-5-7-7-7-7-7-7-7-7-      X1
e:-7-7-7-7-7-7-7-7-3-3-3-3-3-3-3-3-----------------------5-5-5-5-5-5-5-5-

e:------------------------------------------------------------------------------------------
b:------------------------------------------------------------------------------------------
g:---------------------------------------------3-3-3-3-3-3-3-3------------------------
d:-9-9-9-9-9-9-9-9-5-5-5-5-5-5-5-5-3-3-3-3-3-3-3-3-7-7-7-7-7-7-7-7-9      X1
a:-9-9-9-9-9-9-9-9-5-5-5-5-5-5-5-5-5-5-5-5-5-5-5-5-7-7-7-7-7-7-7-7-9
e:-7-7-7-7-7-7-7-7-3-3-3-3-3-3-3-3-----------------------5-5-5-5-5-5-5-5-7


Form
intro
chorus
verse
chorus
drum solo
chorus solo X2
            
Hard to play? Try these video lessons and learn fast. | Correct




comments powered by Disqus
↑ Back to top | Tablatures and chords are parodies/interpretations of the original songs. You may use it for private study, scholarship, research or language learning purposes only