» » »

Unsigned, Alloftheabove Noname Tabs (ver.1)

Artists:  A B C D E F G H I J K L M N O P Q R S T U V W X Y Z # 

Alloftheabove Noname Tabs (ver.1)

Unsigned Tabs
 Rating:
4/5 (4 votes)
Alloftheabove Noname lessons Tabs too difficult? Try these video lessons and learn fast
1
                i made this up...its gonna be my song...here it goes...
Shoat out to mike


e------------------------------------------------
b------------------------------------------------
g-----------5---------------------7--------------
d--2--------5----------5----------7--------------
a--2--------3----------5----------5--------------
e--0-------------------3-------------------------


e------------------------------------------------
b------------------------------------------------
g-------------5-xx-5-xx-------------7-xx-7-xx----
d--2-xx-2-xx--5-xx-5-xx--5-xx-5-xx--7-xx-7-xx----
a--2-xx-2-xx--3-xx-3-xx--5-xx-5-xx--5-xx-5-xx----
e--0-xx-0-xx-------------3-xx-3-xx---------------
            
Submit corrections

comments powered by Disqus
↑ Back to top | Unsigned Tabs for Alloftheabove Noname. Lyrics for acoustic guitar and electric guitar. 1 Tablatures and chords are parodies/interpretations of the original songs. You may use it for private study, scholarship, research or language learning purposes only