>
 >
Afterthought - Enough

Afterthought - Enough Guitar Tabs

Unsigned - Afterthought - Enough chords, tabs, tablatures, lyrics

Guitar lessons | Add/correct | Request | Top 50 tabs Artists:  A B C D E F G H I J K L M N O P Q R S T U V W X Y Z 0-9

Afterthought - Enough Guitar Tabs – Unsigned

CD, Sheet music, Poster

Do you like Afterthought - Enough? Share with your friends now
Tabs
INTRO
E--------------------------------------------------------------------------------
B--------------------------------------------------------------------------------
G--------------------------------------------------------------------------------
D---------------------------------------------------------------5𧈃3--
A-3𦠫𦠫𦠫𦠫𦠫𦠫3-------------------
G--------------------------------------------------------------------------------

E-----------------------------------------------------------------------
B-----------------------------------------------------------------------
G-----------------------------------------------------------------------
D-----------------------------------------------------------------------
A-4𦴘𦴘𦴘𦴚𧛲𧛮𦌾2-
G-----------------------------------------------------------------------

CHORUS
E---------------------
B---------------------
G---------------------10-10-10-10-10-10-10-1011-11-11-11-11-11-11-11-
D-9-9-9-9-9-9-9-9-10-10-10-10-10-10-10-10---9𨖹𨖹𨖹--9-
A-9-9-9-9-9-9-9-9𨃌𨃌---8---8---8---9𨖹𨖹𨖹9-
G-7-7-7-7-7-7-7-7---------------------------------------------------------------------

E---------------------------------
B---------------------------------
G---------------------------------
D-12-12-12-12-12-12-12-12-
A-10-10-10-10-10-10-10-10-
G-10-10-10-10-10-10-10-10-

SOLO
E-------------------------------------------------------------------
B-------------------------------------------------------------------
G-8𧯞𨃋𧛴𧯞𨃋𧛴𨃊-  x4
D-------------------------------------------------------------------
A-------------------------------------------------------------------
G-------------------------------------------------------------------

Then
E-------------
B-------------
G-8𧛳-
D-------------
A-------------
G-------------





Comments


Popular Unsigned tabs & chords
50s Riff Bass Tabs
Desudo - Divide Bass Tabs
Junk Mail - War Forums Bass Tabs
Triskiadekaphobia - Lmls Do It Better Bass Tabs
Yeah Get Naked - Shutup Stuart Bass Tabs
Bowl - Butter Tabs
Damien Crombie - Through Me Tabs
Fernands Band - Hate Tabs
Ill By Mouth- Judgement Tabs
Indesernable - Tilted Bench Tabs


Song lyrics



↑ Back to top | Tablatures and chords are parodies/interpretations of the original songs. You may use it for private study, scholarship, research or language learning purposes only
© 2014 AZChords.com Contact us | Privacy policy | DMCA | Add/correct tabs | Request tabs | Top 50 tabs