» » »

Unsigned, A Depressing Song Tabs (ver.1)

Artists:  A B C D E F G H I J K L M N O P Q R S T U V W X Y Z # 

A Depressing Song Tabs (ver.1)

Unsigned Tabs
 Rating:
4/5 (4 votes)
A Depressing Song lessons Tabs too difficult? Try these video lessons and learn fast
1
                Tuning:Drop-D
intro (clean)
|-----------------------------------------------------------
|-----------------------------------------------------------
|--------10-------------10~-----------10-------------10~----
|-----11----11-------11------------11----11-------11--------
|---8----------8---8-------------8----------8---8-----------
|-8--------------8-------------8--------------8-------------
intro continued
|-------------------------------------------------------|
|-------------------------------------------------------|
|--------10-------------10~----------10-----------8~----|
|-----11----11-------11------------8----8-------6-------|
|---9----------9---9-------------6--------6---6---------|
|-8--------------8-------------6------------6-----------|

Riff 1 (clean or distortion)
part a
|------------------------------------------------
|------------------------------------------------
|-10-10-10-10-10-10-10-10-11-11-11-10-10-10-10-10
|-11-11-11-11-11-11-11-11-11-11-11-10-10-10-10-10
|-8--8--8--8--8--8--8--8--8--8--8--8--8--8--8--8-
|-8--8--8--8--8--8--8--8--8--8--8--8--8--8--8--8-
intro continued part b
|----------------------------------------
|----------------------------------------
|-10-10-10-10-10-10-10-10-8-8-8-6-6-6-6-6
|-8--8--8--8--8--8--8--8--6-6-6-6-6-6-6-6
|-6--6--6--6--6--6--6--6--4-4-4-4-4-4-4-4
|-6--6--6--6--6--6--6--6--4-4-4-4-4-4-4-4
riff 1 part a again

|---------------------------------|
|---------------------------------|
|-6-6-6-6-6-6-6-6-8-8-8-8-8-8-8-8-|
|-6-6-6-6-6-6-6-6-8-8-8-8-8-8-8-8-|
|-4-4-4-4-4-4-4-4-6-6-6-6-6-6-6-6-|
|-4-4-4-4-4-4-4-4-6-6-6-6-6-6-6-6-|
            
Submit corrections

comments powered by Disqus
↑ Back to top | Unsigned Tabs for A Depressing Song. Lyrics for acoustic guitar and electric guitar. 1 Tablatures and chords are parodies/interpretations of the original songs. You may use it for private study, scholarship, research or language learning purposes only