» » »

Unsigned, Addicted To Nothing - Alone Tabs (ver.1)

Artists:  A B C D E F G H I J K L M N O P Q R S T U V W X Y Z # 

Addicted To Nothing - Alone Tabs (ver.1)

Unsigned Tabs
Rating:
0/5 (0 votes)
Addicted To Nothing - Alone lessons Tabs too difficult? Try these video lessons and learn fast
                Tuning: E, A, D, G, B, E.
Introduction (Part One):

E|---0--0--00000--0---|---0--0--00000--0---|---0--0--00000--0-----|
A|---3--3--33333--3---|---3--3--33333--3---|---3--3--33333--3-----|
D|---0--0--00000--0---|---0--0--00000--0---|---2--2--22222--2-----|
G|---0--0--00000--0---|---0--0--00000--0---|---2--2--22222--2-----|
B|---0--0--00000--0---|---3--3--33333--3---|---0--0--00000--0-----|
E|---3--3--33333--3---|--------------------|----------------------|

                                       ^  
E|---0--0--00000--0---|                |
A|---3--3--33333--3---|                |
D|---0--0--00000--0---|                |   
G|---2--2--22222--2---|       <---   Repeat Twice
B|---2--2--22222--2---|
E|--------------------|


Introduction (Part Two):

E|---0--0--00000--0---|---0--0--00000--0---|---0--0--00000--0-----|
A|---3--3--33333--3---|---3--3--33333--3---|---3--3--33333--3-----|
D|---0--0--00000--0---|---0--0--00000--0---|---2--2--22222--2-----|
G|---0--0--00000--0---|---0--0--00000--0---|---2--2--22222--2-----|
B|---2--2--22222--2---|---3--3--33333--3---|---0--0--00000--0-----|
E|---2--2--22222--2---|---3--3--33333--3---|----------------------|


E|---0--0--00000--0---|
A|---3--3--33333--3---|
D|---2--2--22222--2---|
G|---2--2--22222--2---|
B|--------------------|
E|---2--2--22222--2---|


Introduction (Part Three):

E|---3--3--33333--3---|---3--3--33333--3---|---3--3--33333--3-----|
A|---0--0--00000--0---|---0--0--00000--0---|---0--0--00000--0-----|
D|---0--0--00000--0---|---0--0--00000--0---|---2--2--22222--2-----|
G|---0--0--00000--0---|---0--0--00000--0---|---2--2--22222--2-----|
B|---0--0--00000--0---|---3--3--33333--3---|---0--0--00000--0-----|
E|---3--3--33333--3---|--------------------|----------------------|

                                       ^  
E|---3--3--33333--3---|                |
A|---0--0--00000--0---|                |
D|---0--0--00000--0---|                |   
G|---2--2--22222--2---|       <---   Repeat Twice
B|---2--2--22222--2---|
E|--------------------|


Chorus:

E|---0--0--00000--0---|---0--0--00000--0---|---0--0--00000--0-----|
A|---2--2--22222--2---|---0--0--00000--0---|---0--0--00000--0-----|
D|---2--2--22222--2---|---2--2--22222--2---|---0--0--00000--0-----|
G|---0--0--00000--0---|---2--2--22222--2---|---2--2--22222--2-----|
B|---0--0--00000--0---|---0--0--00000--0---|---2--2--22222--2-----|
E|---0--0--00000--0---|---0--0--00000--0---|---0--0--00000--0-----|

                                                           ^
E|---0--0--00000--0---|---0--0--00000--0---|               |
A|---0--0--00000--0---|---2--2--22222--2---|               |
D|---2--2--22222--2---|---2--2--22222--2---|               |
G|---2--2--22222--2---|---0--0--00000--0---|      <---- Repeat Three Times
B|---0--0--00000--0---|---0--0--00000--0---|
E|---0--0--00000--0---|---0--0--00000--0---|


Verse:

E|--00000--00000--0---|--00000--00000--0---|--33333--33333--3-----|
A|--22222--22222--2---|--33333--33333--3---|--33333--33333--3-----|
D|--22222--22222--2---|--22222--22222--2---|--00000--00000--0-----|
G|--------------------|--------------------|----------------------|
B|--------------------|--------------------|----------------------|
E|--------------------|--------------------|----------------------|

E|--33333--33333--3---|--00000--00000--0---|--33333--33333--3-----|
A|--11111--11111--1---|--11111--11111--1---|--11111--11111--1-----|
D|--00000--00000--0---|--22222--22222--2---|--22222--22222--2-----|
G|--------------------|--------------------|----------------------|
B|--------------------|--------------------|----------------------|
E|--------------------|--------------------|----------------------|


Outro:

E|---3-3-3-3-3-3--3---|---3-3-3-3-3-3--3---|---3-3-3-3-3-3---3-----|
A|---1-1-1-1-1-1--1---|---1-1-1-1-1-1--1---|---2-2-2-2-2-2---0-----|
D|---0-0-0-0-0-0--0---|---2-2-2-2-2-2--2---|---2-2-2-2-2-2---0-----|
G|--------------------|--------------------|-----------------0-----|
B|--------------------|--------------------|-----------------2-----|
E|--------------------|--------------------|-----------------3-----|


Order:

Introduction x2
Verse x2
Chorus x3
Verse x2
Chorus x3
Outro x1 (Obviously Finishing On The G Chord)


Lyrics:


First Verse:

There Is Nothing Left,
They Are Dead And Gone,
I Don’t Blame Them,
I Blame The Screwed Up World For What Its Done. . .


Chorus:

There Is No-One Left,
They Have Left This Life,
There Is Nothing Left,
Nothing But Me. . .


Second Verse:

You Showed My Life,
And I Showed You Death,
You Cursed My Name,
To Your Very Last Breath. . .


Chorus:

There Is No-One Left,
They Have Left This Life,
There Is Nothing Left,
Nothing But Me. . .


Outro:

I’m Sick Of This. . .
I Can’t Stand It Anymore. . .
I Can’t Be Alone. . .




Thanks, Enjoy!

Duncan
            

comments powered by Disqus
↑ Back to top | Unsigned Tabs for Addicted To Nothing - Alone. Lyrics for acoustic guitar and electric guitar. Tablatures and chords are parodies/interpretations of the original songs. You may use it for private study, scholarship, research or language learning purposes only