» » »

Unsigned, A Close Last - Jealous Bass tabs (ver.1)

Artists:  A B C D E F G H I J K L M N O P Q R S T U V W X Y Z # 

A Close Last - Jealous Bass tabs (ver.1)

Unsigned Tabs
 Rating:
4/5 (4 votes)
A Close Last - Jealous lessons Tabs too difficult? Try these video lessons and learn fast
1
                start 

------------------------------------------------------------- 
------------------------------------------------------------- 
-------5-5-7--7--2-3---------5-5-7--7--3-2------------------- 
--3-3-------------------3-3---------------------------------- 

verse 

------------------------------------------------------------- 
--------4-5---------4-5----------4-5--------------5-4-------- 
--------------5-5-5-------7-7-7---------3-5-7-5-3-----5-7---- 
--3-3-3------------------------------------------------------    x4 

chorus 

----5-5-5-5-5-5-5-----12-12-12-12-11-11-11-12---------------- 
----5-5-5-5-5-5-5-----0--0--0--0--0--0--0--0----------------- 
------------------------------------------------------------- 
-------------------------------------------------------------    x3 

then for the last bar of the chorus 

----5-5-5-5-5-5-5-----14-14-14-14---------------------------- 
----5-5-5-5-5-5-5-----0--0--0--0----------------------------- 
------------------------------------------------------------- 
------------------------------------------------------------- 

middle section 

----11-11-11-11-12-12-12-12-11-11-11-11-12-12-12-14---------- 
------------------------------------------------------------- 
------------------------------------------------------------- 
-------------------------------------------------------------   x4 

then 

------------------------------------------------------------- 
------------------------------------------------------------- 
------------------------------3-3-3-3------------------------ 
----3-3-3-3-3-3-3-3--0-0-0-0---------------------------------   x4 


last 4 bars 

------------------------------------------------------------- 
----------4-5--------4-5---------9-9-7-7-5--------9-9-7-7-9-- 
---------------5-5-5------7-7-7-------------3-3-3------------ 
----3-3-3---------------------------------------------------- 

then finishes on 2 of 

---------------------- 
-----------5-4-------- 
-3-5-7-5-3-----5-7---- 
-----------------------------3------at the very end
            
Submit corrections

comments powered by Disqus
↑ Back to top | Unsigned Bass for A Close Last - Jealous. Lyrics for acoustic guitar and electric guitar. 1 Tablatures and chords are parodies/interpretations of the original songs. You may use it for private study, scholarship, research or language learning purposes only