» » »

Unsigned, 69 Sents- Song Thingy Tabs (ver.1)

Artists:  A B C D E F G H I J K L M N O P Q R S T U V W X Y Z # 

69 Sents- Song Thingy Tabs (ver.1)

Unsigned Tabs
Rating:
0/5 (0 votes)
69 Sents- Song Thingy lessons Tabs too difficult? Try these video lessons and learn fast
                this song is from my uunsigned band called 69 sents 


pre-intro

e-------I
b-------I
g-------I
d-------I	press down on the whammy bar
a-----0-I
E-------I

intro(guitar 1: lightly dist.)
e----------------------------------------------------------------------------------------------------------------------------
b----------------------------------------------------------------------------------------------------------------------------
g----------------------------------------------------------------------------------------------------------------------------
d----------------------------------------------------------------------------------------------------------------------------
a-----------14-----------15-----------14-----------15-----------14-----------15----14---12-12-12-12-12-12-12-12
E-0-0-0-0-12-0-0-0-0-13-0-0-0-0-12-0-0-0-0-13-0-0-0-0-12-0-0-0-0-13-0-12-0-10-10-10-10-10-10-10-10

p.m..........      .............    ...............     ..............    ..............      ..............    ....     ..

while doing above (guitar 2 :muffled clean)
e--------------------11-13^13-11-13^13-11------------|
b-13-13-13-13-11----------------------------13~~~~~|
g------------------------------------------------------------|  X 2
d------------------------------------------------------------|
a------------------------------------------------------------|
E------------------------------------------------------------|


verse(guitar 1: distorted)
e---------------------------------------|	|------------------------------------|
b---------------------------------------|	|------------------------------------|	
g---------------------------------------| X 3  |------------------------------------| 	do the whole thing twice
d--------------------------------------2|	|-----------------2-2-2-2-3-2-----|
a-2-2-2-2-2-2-2-2-2-2-2-2-2-2-2-0|	|2-2-2-2-2-2-2-0-0-3-0-0-0-0-2|
E-0-0-3-3-0-0-3-3-0-0-3-3-0-0-3--|	|0-0-3-3-0-0-3----------------3-0|
                                                      |                                  |
2nd guitar clean                         V                                V
e---------------------------------------------|--------------------------------------------------
b-------------------------------------12^^^|-------------------12-12-12-12-13-12-12-11^
g---------------------------------------------|--------------------0--0-13---0---0--0-13-11^
d--------------------------------------------|---------------------------------------------------
a---------------------------------------------|---------------------------------------------------
E---------------------------------------------|0-0-0-0-0-0-0---------------------------------


chorus 1-2 Guitars distorted

e------------------------------------------
b------------------------------------------
g------------------------------------------
d------------------------------------------
a-2-2-2-2-2-2-2-2-9----7---5----3---2
E-0-0-0-0-0-0-0-0-7-0-5-0-3-0-1-0-0

solo guitar 1(clean)

e-3-0---------------------------
b-----3-0----------------------
g----------3-2-0--2-0h1------
d-----------------2--------2p0 fiddle around with the pick-up selector
a--------------------------------
E--------------------------------
            
Submit corrections

comments powered by Disqus
↑ Back to top | Unsigned Tabs for 69 Sents- Song Thingy. Lyrics for acoustic guitar and electric guitar. Tablatures and chords are parodies/interpretations of the original songs. You may use it for private study, scholarship, research or language learning purposes only