» » »

5ive Pm - What About Us Bass tabs (ver.1)

Artists:  A B C D E F G H I J K L M N O P Q R S T U V W X Y Z # 

5ive Pm - What About Us Bass tabs (ver.1)

Unsigned
Rating:
0/5 (0 votes)

Hard to play? Try these video lessons and learn fast.
                Intro
G|--------------------------------------------------|
D|--------------------------------------------------|
A|----------------3~----3~----------------5~----5~--|
E|(1/5)~----5~----------------3~----3~--------------|

G|--------------------------------------------------|
D|--------------------------------------------------|
A|0~----0~----3~----3~----------------5~----5~-57~--|
E|------------------------3~----3~------------------|

Verse 
G|-------------------------------------|
D|-------------------------------------|
A|0-0-0-02-3-3-3-35----------5-5-5-57--|
E|------------------3-3-3-35-----------|

Fill
G|---------------------------------------|
D|---------------------------------------|
A|0-0-0-02-3-3-3-35----------5-5-574321--|
E|------------------3-3-3-35-------------|

Verse x1

Pre-chorus
G|-------------------------------------------|
D|-------------------------------------------|
A|0-0-0-02-3-3-3-35----------5-5-5-57~~~~/0--|
E|------------------3-3-3-35-----------------|

Chorus
G|-------------------------------------|
D|-------------------------------------|
A|00000002-33333335----------55555557--|
E|------------------33333335-----------|

G|----------------------------------------|
D|----------------------------------------|
A|00000002-33333335----------55555557-/0--|
E|------------------33333335--------------|

Verse x1
Pre-chorus x1

Bridge
G|---------------------------------|
D|---------------------------------| x3
A|0----02-3----35---------5----57--|
E|----------------3----35----------|

G|---------------------------------------|
D|---------------------------------------|
A|0----02-3----35---------5----57~~~~/0--|
E|----------------3----35----------------|

Chorus x1
Verse x1
Pre-chorus x1
chorus x1
verse x1
Fill x1
verse x1
pre-chorus x1

Outro
G|-------------------------------------|
D|-------------------------------------| x3
A|0-0-0--2-3-3-3--5----------5-5-5--7--|
E|------------------3-3-3--5-----------|
            
Hard to play? Try these video lessons and learn fast. | Correct




comments powered by Disqus
↑ Back to top | Tablatures and chords are parodies/interpretations of the original songs. You may use it for private study, scholarship, research or language learning purposes only