» » »

5ive Pm - Number Bass tabs (ver.1)

Artists:  A B C D E F G H I J K L M N O P Q R S T U V W X Y Z # 

5ive Pm - Number Bass tabs (ver.1)

Unsigned
Rating:
0/5 (0 votes)

Hard to play? Try these video lessons and learn fast.
                Bass Tabs

Guitar intro

Verse
G|------------------------------|
D|------------------------------|
A|----------33------55------33--|
E|--33--------------------------| x4

Chorus
G|-------------------------------------|
D|-------------------------------------|
A|-----------33333333-5555555555555-5--|
E|--33333333---------------------------|

G|-------------------------------------|
D|-------------------------------------|
A|-----------33333333-5555555555-5-55--|
E|--33333333---------------------------|

G|-------------------------------------|
D|-------------------------------------|
A|-----------33333333-5555555555555-5--|
E|--33333333---------------------------|

G|--------------------------------------|
D|--------------------------------------|
A|--77777777-22222222-33333333-55-5-55--|
E|--------------------------------------| x2

Verse
G|------------------------------|
D|------------------------------|
A|----------33~-----55~-----33~-|
E|--33~-------------------------| x4

Chorus
G|-------------------------------------|
D|-------------------------------------|
A|-----------33333333-5555555555555-5--|
E|--33333333---------------------------|

G|-------------------------------------|
D|-------------------------------------|
A|-----------33333333-5555555555-5-55--|
E|--33333333---------------------------|

G|-------------------------------------|
D|-------------------------------------|
A|-----------33333333-5555555-----5-5--|
E|--33333333---------------------------|

G|--------------------------------------|
D|--------------------------------------|
A|--77777777-22222222-33333333-55-5-55--|
E|--------------------------------------| x2   

Verse
G|------------------------------|
D|------------------------------|
A|----------33------55------33--|
E|--33--------------------------| x4

Chorus
G|-------------------------------------|
D|-------------------------------------|
A|-----------33333333-5555555555555-5--|
E|--33333333---------------------------|

G|-------------------------------------|
D|-------------------------------------|
A|-----------33333333-5555555555-5-55--|
E|--33333333---------------------------|

G|-------------------------------------|
D|-------------------------------------|
A|-----------33333333-5555555555555-5--|
E|--33333333---------------------------|

G|--------------------------------------|
D|--------------------------------------|
A|--77777777-22222222-33333333-55-5-55--|
E|--------------------------------------| 

Bridge
G|------------------------------|
D|------------------------------|
A|----------33~-----55~-----33~-|
E|--33~-------------------------| x8


Chorus
G|-------------------------------------|
D|-------------------------------------|
A|-----------33333333-5555555555555-5--|
E|--33333333---------------------------|

G|-------------------------------------|
D|-------------------------------------|
A|-----------33333333-5555555555-5-55--|
E|--33333333---------------------------|

G|-------------------------------------|
D|-------------------------------------|
A|-----------33333333-55555555----5-5--|
E|--33333333---------------------------|

G|--------------------------------------|
D|--------------------------------------|
A|--77777777-22222222-33333333-55-5-55--|
E|--------------------------------------| x2 

Outro
G|-----------------------------------|
D|-----------------------------------|
A|--55-5-55-55-5-55-5~------------5/3|
E|-----------------------------------|
            
Hard to play? Try these video lessons and learn fast. | Correct




comments powered by Disqus
↑ Back to top | Tablatures and chords are parodies/interpretations of the original songs. You may use it for private study, scholarship, research or language learning purposes only