» » »

Unsigned, 5ive Pm - New Song Bass tabs (ver.1)

Artists:  A B C D E F G H I J K L M N O P Q R S T U V W X Y Z # 

5ive Pm - New Song Bass tabs (ver.1)

Unsigned Tabs
Rating:
0/5 (0 votes)
5ive Pm - New Song lessons Tabs too difficult? Try these video lessons and learn fast
                INTRO/PRE-VERSE
G|-----------------------------|
D|-----------------------------|
A|-5~--------------------------|
E|-----------------33333333-5--| X1

VERSE
G|--------------------------------------|
D|--------------------------------------|
A|-55555555----------22222222-----------|
E|----------22222222----------33333333--| X8

PRE-CHORUS
G|--------------------------------------------------------------|
D|--------------------------------------------------------------|
A|-555555555----------------------------------------------------|
E|-----------------555555555-------333333333-------55555555-7~--| X1

CHORUS
G|----------------------------------------------------------------------|
D|----------------------------------------------------------------------|
A|-5555555555555555-----------------------------------------------------|
E|------------------3333333333333333-7777777777777777-5555555555555555--|

G|-----------------------------------------------------------------------|
D|-----------------------------------------------------------------------|
A|-5555555555555555-7777777777777777-------------------------------------|
E|-----------------------------------7777777777777777-33333333-55555555--|

PRE-VERSE X1
VERSE X4
PRE-CHORUS X1
CHORUS

BRIDGE
G|----------------------------|
D|----------------------------|
A|-5-----------------------2--|
E|---------5-------3----------| X4

G|---------------------------------------|
D|---------------------------------------|
A|-55555555--------------------22222222--|
E|----------555555555-33333333-----------| X4

PRE-CHORUS (PART 2)
G|----------------------------------------------------------------|
D|----------------------------------------------------------------|
A|-5555555555555555-----------------------------------------------|
E|------------------5555555555555555-3333333333333333-55555555-7--| X1

CHORUS X2
            
Submit corrections

comments powered by Disqus
↑ Back to top | Unsigned Bass for 5ive Pm - New Song. Lyrics for acoustic guitar and electric guitar. Tablatures and chords are parodies/interpretations of the original songs. You may use it for private study, scholarship, research or language learning purposes only